Lenny-kravitz.com     Muzilab.com
首页  |  生平  |  音乐专辑  |  歌曲名称  |  图片  |  情报中心  |  电影  |  链接  |  论坛

Blues for sister someone (Lenny Kravitz)
歌曲介绍  |  歌词  |  吉他乐谱

吉他乐谱

I know a girl who gets off, by sticking needles in her vein
E--------------------------------------------------------------------
B--------------------------------------------------------------------
G--------------------------------------------------------------------
D-7-7-7-7-7-7-7-7-7-7-7-7-7-7-7-7-7-7-7-7-7-7-7-7-7-7-7-7------------
A-5-5-5-5-5-5-5-5-5-5-5-5-5-5-5-5-5-5-5-5-5-5-5-5-5-5-5-5-5-5-5-5-5-5
E---------------------------------------------------------3-3-3-3-3-3

Oh Lord, what a shame!
E--------------------------------------------------------------------
B--------------------------------------------------------------------
G--------------------------------------------------------------------
D-------------------------------7-7-7-7-7-7-7-7-7-7-7-7-7-7-7-7-7-7-7
A-5-5-5-5-5-5-5-5-5-5-5-5-5-5-5-5-5-5-5-5-5-5-5-5-5-5-5-5-5-5-5-5-5-5
E-3-3-3-3-3-3-3-3-3-3-3-3-3-3-3--------------------------------------

 She's got no money so she turns tricks and plays dirty games
E--------------------------------------------------------------------
B--------------------------------------------------------------------
G--------------------------------------------------------------------
D-7-7-7-7-7-7-7-7-7-7-7-7-7-7-7-7-7-7-7-7-7-7-7-7-7-7-7-7------------
A-5-5-5-5-5-5-5-5-5-5-5-5-5-5-5-5-5-5-5-5-5-5-5-5-5-5-5-5-5-5-5-5-5-5
E---------------------------------------------------------3-3-3-3-3-3

 Oh Lord spare her pain
E--------------------------------------------------------------------
B--------------------------------------------------------------------
G--------------------------------------------------------------------
D-------------------------------7-7-7-7-7-7-7-7-7-7-7-7-7-7-7-7-7-7-7
A-5-5-5-5-5-5-5-5-5-5-5-5-5-5-5-5-5-5-5-5-5-5-5-5-5-5-5-5-5-5-5-5-5-5
E-3-3-3-3-3-3-3-3-3-3-3-3-3-3-3--------------------------------------

What she say she do to you 	you'd have to be insane
E--------------------------------------------------------------------
B--------------------------------------------------------------------
G--------------------------------------------------------------------
D-7-7s10-10-10-10-10-10-10-10-10-10-10-10s12
 

Lenny-kravitz.com : English - Français - Deutsch - 中文

Designed by Muzilab™ Entertainement © 2012

page served in 0.009s