Lenny-kravitz.com     Muzilab.com
首页  |  生平  |  音乐专辑  |  歌曲名称  |  图片  |  情报中心  |  电影  |  链接  |  论坛

Always on the run (Lenny Kravitz)
歌曲介绍  |  歌词  |  吉他乐谱

吉他乐谱

The main riff (Em):
                                                          P   P   H
e ----------------|----------------|----------------|----------------|
B ----------------|----------------|----------------|----------------|
G ----------------|----0-----------|----------------|----------------|
D ----2---0-------|0-----0---2-----|----2---0-------|0-0---------0^2-|
A ----------4-----|----------------|----------4-----|----4^0---------|
E 0-------------0-|0---------------|0-------------0-|0-------3^0-----|
  1   2   3   4    1   2   3   4    1   2   3   4    1   2   3   4


... while the second guitar is playing:
                                                                 S
e 12----------------|----------------|----------------|--------11^12-12----|
B 12-x--x---x---x---|x---x-x-x-x-x---|x-x-x---x---x---|x---x-x-11^12-12----|
G 12-x--x---x---x---|x---x-x-x-x-x---|x-x-x---x---x---|x---x-x-11^12-12----|
D ---x--5---7---x---|x---x-5-x-x-x---|x-x-5---7---x---|x---x-x-------------|
A --------------5---|7---------5-7---|------------5---|7-------------------|
E ------------------|----------------|----------------|--------------------|
  1  '  2   3   4    1   2   3   4    1   2   3   4    1   2   3  '  4
 

Lenny-kravitz.com : English - Français - Deutsch - 中文

Designed by Muzilab™ Entertainement © 2012

page served in 0.008s