Lenny-kravitz.com     Muzilab.com
首页  |  生平  |  音乐专辑  |  歌曲名称  |  图片  |  情报中心  |  电影  |  链接  |  论坛

What the fuck are we saying ? (Lenny Kravitz)
歌曲介绍  |  歌词  |  吉他乐谱

吉他乐谱

Instrument: 6 String Guitar

Tuning: 1/2 Step Down (Eb Ab Db Gb Bb Eb)

There's only a little bit of guitar in the chorus.
Lenny usually plays it live with a Fender Telecaster.

    C            G           D  A  
Eb|-0------------3-----------------------------------||
Bb|-1------------3-------------3---------------------||
Gb|-0------------0-------------2----2----------------||
Db|-2------------0-------------0----2----------------||
Ab|-3------------2------------------0------------0-2-||
Eb|--------------3-----------------------------------||
       

    C            G           D  A  
Eb|-0------------3-----------------------------------||
Bb|-1------------3-------------3---------------------||
Gb|-0------------0-------------2----2----------------||
Db|-2------------0-------------0----2----------------||
Ab|-3------------2------------------0------------0-2-||
Eb|--------------3-----------------------------------||
    

    C            G           D  A  
Eb|-0------------3-----------------------------------||
Bb|-1------------3-------------3---------------------||
Gb|-0------------0-------------2----2----------------||
Db|-2------------0-------------0----2----------------||
Ab|-3------------2------------------0----------------||
Eb|--------------3-----------------------------------||
      

Tabbed by: Domenico Lovascio (lovabros@virgilio.it)
 

Lenny-kravitz.com : English - Français - Deutsch - 中文

Designed by Muzilab™ Entertainement © 2012

page served in 0.017s