Lenny-kravitz.com     Muzilab.com
首页  |  生平  |  音乐专辑  |  歌曲名称  |  图片  |  情报中心  |  电影  |  链接  |  论坛

Heaven help (Lenny Kravitz)
歌曲介绍  |  歌词  |  吉他乐谱  |  乐谱

吉他乐谱

INTRO:

 Bm7 F#m7 E   D
--2---2---0---2--
--3---2---0---3--
--2---2---1---3-- x2
--4---2---2---0--
--2---4---2------
------2---0------


VERSE1:

 Bm7 F#m7 Bm7 F#m7
--2---2---2---2--
--3---2---3---2--
--2---2---2---2--=20
--4---2---4---2--
--2---4---2---4--
------2-------2--

 Bm7 F#m7 E   D
--2---2---0---2--
--3---2---0---3--
--2---2---1---3--=20
--4---2---2---0--
--2---4---2------
------2---0------


CHORUS:

 Bm7 F#m7 Bm7 F#m7 Bm7 F#m7 Em7 A7 Bm7 F#m7 Bm7 F#m7 Em7 D
--2---2---2---2----2---2----0---0---2---2---2---2----0---2--
--3---2---3---2----3---2----0---2---3---2---3---2----0---3--
--2---2---2---2----2---2----0---0---2---2---2---2----0---2--
--4---2---4---2----4---2----0---2---4---2---4---2----0---0--
--2---4---2---4----2---4----2---0---2---4---2---4----2------
------2-------2--------2----0-----------2-------2----0------


PLAY THE INTRO=20


VERSE2:same as verse1


CHORUS


PLAY THE INTRO ONLY ONCE


BRIDGE:
 Bm7 F#m7 Em7 A7  D   C#  E  F#m7 Em7 D
--2---2---0---0---2---4---0---2---0---2--
--3---2---0---2---3---6---0---2---0---3--
--2---2---0---0---2---6---1---2---0---2--
--4---2---0---2---0---6---2---2---0---0--
--2---4---2---0-------4---2---4---2------
------2---0---------------0---2---0------


CHORUS


ENDING: like the intro
 

Lenny-kravitz.com : English - Français - Deutsch - 中文

Designed by Muzilab™ Entertainement © 2012

page served in 0.008s