Lenny-kravitz.com     Muzilab.com
首页  |  生平  |  音乐专辑  |  歌曲名称  |  图片  |  情报中心  |  电影  |  链接  |  论坛

Is there any love in your heart (Lenny Kravitz)
歌曲介绍  |  歌词  |  吉他乐谱

吉他乐谱

Intro/verse

e----------------------------(5)(5)-x--x--|--
b--------8--8--8--8--x--7--x--5--5--x--x--|--
g--------6--6--6--6--x--6--x--6--6--x--x--|--
d--------7--7--7--7--x--7--x--7--7--x--x--|--
a---0-------------------0--------0--x--x--|--
e-----------------------------------------|--


e------------------------------------(5)(5)--x--x--|--
b----------8--8--8--8--x--7--x--7--x--5--5---x--x--|--
g----------6--6--6--6--x--6--x--6--x--6--6---x--x--|--
d----------7--7--7--7--x--7--x--7--x--7--7---x--x--|--
a--0--0-------------------0-----0--------0---x--x--|--
e--------------------------------------------------|--


e-------8--8--8--8--x-7----(5)(5)-x--x--|--
b-------8--8--8--8--x-7--x--5--5--x--x--|--
g-------6--6--6--6--x-6--x--6--6--x--x--|--
d-------7--7--7--7--x-7--x--7--7--x--x--|--
a-0--0----------------0--------0--x--x--|--
e---------------------------------------|--


e---------------------------(5)(5)-x--x--|--
b-------8--8--8--8--x--7--x--5--5--x--x--|--
g-------6--6--6--6--x--6--x--6--6--x--x--|--
d-------7--7--7--7--x--7--x--7--7--x--x--|--
a--0--0----------------------------x--x--|--
e----------------------------------------|--


e--------8--8--8--8--x--7--x--(5)(5)x--x--|--
b--------8--8--8--8--x--7--x--5--5--x--x--|--
g--------6--6--6--6--x--6--x--6--6--x--x--|--
d--------7--7--7--7--x--7--x--7--7--x--x--|--
a--0--0-----------------0--------7--x--x--|--
e-----------------------------------------|--


Verse 1.

D5                Csus2					Main bit
Tell me baby, why can't ...
D5		  Csus2					Main bit
If you open your eyes ..
C5 				E7#9
You'd think about ...
Aw Yeah!

Verse 2.
D5		    Csus2				Main bit
Baby baby you walk ...
D5			Csus2                           Main bit
Your whole life is a ...
C5			       E7#9
You talk behind my ...

Chorus

Is there any love .

Before each chorus play:


e-------12-------------------
b--12B------12rp10--12---10--
g----------------------------
d----------------------------


Is there any......

e---12B--r---10------------------
b----------------12B----10-------
g----------------------------10--
d--------------------------------





Ooh  Yeah
         	e--------12------------------
		b--12B------12rp10--12---10--
		g----------------------------
		d----------------------------


Is there any......

e--12B---r--10--------------------
b---------------12B--12p10---12b--
d---------------------------------
g---------------------------------


Cords behind this are:

A5 G5
D5 F5 A5
D5 F5
C5G5C5G5

Verse 3.

D5			   Csus2				
Babe you say I'm the ...
D5			   Csus2
Baby all that you care ...
C5			     E7#9
Your just the kind ...



 Then it's     X4

e-----------------
b--------9-9-9-7--
g--------9-9-9-7--
d--------9-9-9-7--
a-----------------
e---0-------------


Behind Solo it's first

e------------------------------
b--------9-9-9-7--x-x-x-x-x-x--
g--------9-9-9-7--x-x-x-x-x-x--
d--------9-9-9-7--x-x-x-x-x-x--
a------------------------------
e---0--------------------------

and then

e---------------------------------
b--------9-9-9-7------------------
g--------9-9-9-7------------------
d--------9-9-9-7------------------
a------------------------5---7----
e---0--0----------6--7------------
 

Lenny-kravitz.com : English - Français - Deutsch - 中文

Designed by Muzilab™ Entertainement © 2012

page served in 0.009s