Lenny-kravitz.com     Muzilab.com
首页  |  生平  |  音乐专辑  |  歌曲名称  |  图片  |  情报中心  |  电影  |  链接  |  论坛

Silver and gold (Vanessa Paradis)
Lenny Kravitz
歌曲介绍  |  歌词  |  吉他乐谱

吉他乐谱

Verse:

  Am            G       D
E|-------------|-----3-|-------|
B|-------1-----|-------|-----3-|
G|-----2---2---|---0---|---2---|
D|---2-------2-|-------|-0-----|
A|-0-----------|-------|-------|
E|-------------|-3-----|-------|

Bridge:

  C       G       Bb      Am  Am/G
E|-------|-------|-------|---|-----|
B|-------|-------|-------|---|-----|
G|-----0-|-----0-|-----3-|---|-----|
D|---2---|---0---|---3---|---|-----|
A|-3-----|-2-----|-1-----|-0-|-0-2-|
E|-------|-------|-------|---|-----|

   C  G  Bb Am
E|-------|-------|------------|-------1-|
B|-------|-------|-------3----|---------|
G|-----0-|-----0-|-----3---3--|-----2---|
D|---2---|---0---|---3------3-|---2-----|
A|-3-----|-2-----|-1----------|-0-------|
E|-------|-------|------------|---------|


Repeat verse until fade
 

Lenny-kravitz.com : English - Français - Deutsch - 中文

Designed by Muzilab™ Entertainement © 2012

page served in 0.007s