Lenny-kravitz.com     Muzilab.com
首页  |  生平  |  音乐专辑  |  歌曲名称  |  图片  |  情报中心  |  电影  |  链接  |  论坛

Live (Lenny Kravitz)
Music: Lenny Kravitz & Craig Ross / Lyrics: Lenny Kravitz
歌曲介绍  |  歌词  |  吉他乐谱

吉他乐谱

Main Riff (repeat as necessary) ->

  E E E E E E E Q E E E Q Q E E E E E E E Q E E E E E Q.
|-----------------------------------------------------------|
|-----------------------------------------------------------|
|-----------------2---5-------------------------------------|
|-3-5---5---3-5---3---2-----3-5---5---3-5---5---5---5-------|
|-------------------------------------------3---2---3-------|
|-----------------------------------------------------------|

Chorus ("Do just what you wanna do...") -->

  Bb C  Eb F

|-1--3--6---8----|
|-3--5--8--10----|
|-3--5--8--10----|
|-3--5--8--10----|
|-1--3--6---8----|
|----------------|


Duration Legend
---------------
W - whole; H - half; Q - quarter; E - 8th
 

Lenny-kravitz.com : English - Français - Deutsch - 中文

Designed by Muzilab™ Entertainement © 2012

page served in 0.008s