Lenny-kravitz.com     Muzilab.com
首页  |  生平  |  音乐专辑  |  歌曲名称  |  图片  |  情报中心  |  电影  |  链接  |  论坛

I belong to you (Lenny Kravitz)
歌曲介绍  |  歌词  |  吉他乐谱

吉他乐谱

Intro: Single note is a g
Bass enters

-------------------------------------------------------------------------
-------------------------------------------------------------------------
-3-3-3-3-3-3-------3-3-3-3-3-3-------------------------------------------
--------------------------------------3-3-3-3-3-3---0-1-2-3-3-3-3-3-3--6-
-------------------------------------------------------------------------
-------------------------------------------------------------------------
-3-3-3-3-3-3--------3-3-3-3-3-3--5---------------------------------------
--------------------------------------3-3-3-3-3-3---0-1-2-3-3-3-3-3-3--6-

This goes on with some slight variation e.g.



--------------------------------------------------------------------------------

--------------------------------------------------------------------------------
-3-3-3-3-3-3---0-1-2-3-3-3-3-3-3--5--------------------------------------
--------------------------------------3-3-3-3-3-3--13-s-3-3-3-3-3-3-3-6--


Guitar chords are Cm and Gm
 

Lenny-kravitz.com : English - Français - Deutsch - 中文

Designed by Muzilab™ Entertainement © 2012

page served in 0.008s