Lenny-kravitz.com     Muzilab.com
首页  |  生平  |  音乐专辑  |  歌曲名称  |  图片  |  情报中心  |  电影  |  链接  |  论坛

Fear (Lenny Kravitz)
歌曲介绍  |  歌词  |  吉他乐谱

吉他乐谱

intro verse-with wah [these are the only chords needed]
-------------------------------------------------------------------------------
--8-------8-------10------9----------------------------------------------------
--7-------7-------9-------8----------------------------------------------------
--6-------6-------8-------7----------------------------------------------------
--7-------7-------9-------8----------------------------------------------------
-------------------------------------------------------------------------------

chorus-distortion
---------------------------------------------------------------------------------
-------------------------------------------------------------------------s12s----
-------------------------------------------------------------------------s12s----
----------------------0--2b-2b-0-------------------------------------------------
-------------0--1--2-------------2-------2--3--4--5--------4--5--6--[7]----------
-0--2--3--4---------------------------3--------------3--5-----------/------------
                               [only play this note right before the verse]

solo-distortion:
-------------------------------------------------------------------------------
------------------------------------------------------------------14-14b-14b---
------------------------------------------------------------12h14-14-14b-14b---
-------------------------------------12h14h15-------12h14h15-------------------
-12b13---10--10~-------------12h13h14------------------------------------------
-----------12--------12h13h14--------------------------------------------------


-------------------------------------------------------------12-15b-15b-12-15b-
-14b-14b-12------------------------------------------12h14h15------------------
-14b-14b-12--------------12br----------------12h13h14--------------------------
-----------------------12------------12h13h14----------------------------------
---------------12h13h14--------------------------------------------------------
-------------------------------------------------------------------------------


-12-17b-15br----------------------------17b-17p15---------------
-------------17~--14-14-14s15---------------------17-15-17b-----
------------------14-14-14s15-----------------------------------
----------------------------------------------------------------
----------------------------------------------------------------
----------------------------------------------------------------

the phat lick
-------------------------------------------------------------------------------
-------------------------------------------------------------------------------
-14-12-14br----------12-14brp12---------------------------------12-14-14brp12--
------------12h13h14-----------12h14-12h14p12h14--------12h13h14---------------
------------------------------------------------12h13h14-----------------------
-------------------------------------------------------------------------------


-----------------------14-16-17-17b--------
------------------14h16--------------------
----------12-14s16-------------------------
-12h13h14----------------------------------
-------------------------------------------
-------------------------------------------
 

Lenny-kravitz.com : English - Français - Deutsch - 中文

Designed by Muzilab™ Entertainement © 2012

page served in 0.011s