Lenny-kravitz.com     Muzilab.com
首页  |  生平  |  音乐专辑  |  歌曲名称  |  图片  |  情报中心  |  电影  |  链接  |  论坛

Dig in (Lenny Kravitz)
歌曲介绍  |  歌词  |  吉他乐谱

吉他乐谱

Standard Tuning
Chords

  F#5  B5 D5 Eb5 E5 B5/F# D5/A
E--------------------------------
B--------------------------------
G-----(4)-7---8--9----4-----7----
D-(4)--4--7---8--9----4-----7----
A--4---2--5---6--7----2-----5----
E--2------------------2-----5----

Verse 1
-------
F#5                 B5        F#5                B5  F#5
It's time to face it, come on in and join the party
etc...

D5                    A
There is nowhere to run
D5                    A
There is no way to hide
D5
Don't let it beat you
Eb5                        E5
Say "nice to meet you" and "bye"

A            B5/F#
Once you dig in
D5/A
You'll find it coming out the other side
etc...


The rest of the song makes use of the above chords/structure

Adam Landefeld (landefeld.9@osu.edu)

Dig In (solo!)

|/5-5-5-5-5-5-5-5-|/5-5-5-5-5-5-5-5-|/8-8-8-8-8-8-8-8-|
|/5-5-5-5-5-5-5-5-|/5-5-5-5-5-5-5-5-|/8-8-8-8-8-8-8-8-|
|-----------------|-----------------|-----------------|
|-----------------|-----------------|-----------------|
|-----------------|-----------------|-----------------|
|-----------------|-----------------|-----------------|
              full
               ) \                                 full
|-10--8--10--10--(10)p8-----8------|-----------------)-------------|
|-10--------------------10-----10--|---10------10--12--12--10------|
|------------------------------9---|---9--/11------------------11--|
|----------------------------------|-------------------------------|
|----------------------------------|-------------------------------|
|----------------------------------|-------------------------------|
         full                         (unison bends)
          )  \       full             full      full
|-------12---(12)p10---)-----|----------)---------)|
|--------------------12--10--|-------10/-------13/-|
|----------------------------|-------12--------15--|
|----------------------------|---------------------|
|----------------------------|---------------------|
|----------------------------|---------------------|

         full
|----------)--------|-------------------|
|-------15/---------|-------------------|
|-------17----------|-------------------|
|-------------------|-7----7------------|
|-------------------|-7----7------------|
|-------------------|-5----5------------|

Tabbed by Guitarnovice (guitarnovice@hotmail.com)
 

Lenny-kravitz.com : English - Français - Deutsch - 中文

Designed by Muzilab™ Entertainement © 2012

page served in 0.008s