Lenny-kravitz.com     Muzilab.com
首页  |  生平  |  音乐专辑  |  歌曲名称  |  图片  |  情报中心  |  电影  |  链接  |  论坛

Flash (Lenny Kravitz)
Words and Music by Lenny Kravitz
歌曲介绍  |  歌词  |  吉他乐谱

吉他乐谱

------------------------------------------------------------------------------
------------------------------------------------------------------------------
------------------------------------------------------------------------------
-----11-11-11-----9-9-9------4-4----7---7--9---9-----7-7-7-9-9-9--------------
-----11-11-11-----9-9-9------4-4----7-7----9-9-------7-7-7-9-9-9--------------
-9-9-9--9--9--7-7-7-7-7--2-2-2-2----5------7---------5-5-5-7-7-7--------------
intro/main riff _____________________ |----------| or |----------| 

-----------------------|------------------------------------------------------
-----------------------|------------------------------------------------------
---4-------------------|-2-2---------------2-2-6-6----------------------------
-4-4-4-----------------|-2-2---------------2-2-6-6----------------------------
-4-4-4-----------------|-0-0---------------0-0-4-4----------------------------
-2---2-----------------|------------------------------------------------------
______________________time (2.25) repeat a lot, then 

----------------|-------------------------|-----------------------------------
------9h12p9----|-------------------------|-------9-12-9-14-14----------------
--b11-----------|-11p9----9---------------|---b11-----------------------------
--***-----------|------11---11p9----9h11--|-----------------------------------
----------------|----------------11-------|-----------------------------------
----------------|-------------------------|-----------------------------------
***=full bend & hold
 

Lenny-kravitz.com : English - Français - Deutsch - 中文

Designed by Muzilab™ Entertainement © 2012

page served in 0.007s