Lenny-kravitz.com     Muzilab.com
首页  |  生平  |  音乐专辑  |  歌曲名称  |  图片  |  情报中心  |  电影  |  链接  |  论坛

Tunnel vision (Lenny Kravitz)
歌曲介绍  |  歌词  |  吉他乐谱

吉他乐谱

intro
-------------------------------------------------------------     
-6x6x6xx6-66--6x6x6xx6-66--6x6x6xx6-66--6xx6~-6--------------
-5x5x5xx5-55--5x5x5xx5-55--5x5x5xx5-55--5xx5~-5--------------
-4x4x4xx4-44--4x4x4xx4-44--4x4x4xx4-44--4xx4~-4--------------
-5x5x5xx5-55--5x5x5xx5-55--5x5x5xx5-55--5xx5~-5--------------
-------------------------------------------------------------

chorus/main riff                                                
-----------------------------------------------------------------------------
-----6~-6-xx---------xx-6~-6---------xx-6~-6---------xx-6--13b13r-13p10------
-----5~-5-xx---------xx-5~-5---------xx-5~-5---------xx-5--------------13-10-
-----4~-4-xx----3~---xx-4~-4----3~---xx-4~-4----3~---xx-4--------------------
-5xx-5~-5-xx-3h5---5-xx-5~-5-3h5---5-xx-5~-5-3h5---5-xx-5--------------------
-----------------------------------------------------------------------------

verse
------------------------------------------------
-6--6-6--4--4-4--10-1010-8--8-------------------
-5--5-5--3--3-3--9--9-9--7--7-------------------
-4--4-4--2--2-2--8--8-8--6--6-------------------
-5--5-5--3--3-3--9--9-9--7--7-------------------
-0--0-0--0--0-0--0--0-0--0--0-------------------

solo:
---------------------------------------------------------------------------------
-13b---13-13b-13p10--------------------------------------------------------------
--------------------12brp10---10-----12-12p10-------------------------10--10-----
---------------------------12---12-----------12-10------------10-11-12--12-------
--------------------------------------------------12--10-11-12-------------------
---------------------------------------------------------------------------------

------------------------------10--------------------10--
------------------10--10-12-13----------------------13b-
-12brp10--10-12-10---------------12b-12brp10--10--------
--------12----------------------------------12--12------
--------------------------------------------------------
--------------------------------------------------------

------------------------------------------------------------------------------
-13b--13brp10----------------------------13b-13brp----------------------------
--------------12b~~rp10---------------------------12b-10b---------------------
------------------------10--12brp10-----------------------12p10---12brp10-----
------------------------------------12~-----------------------------------12~-
------------------------------------------------------------------------------

---------------------------------12--12-14-15-14-12--------------------
-------------------------12-14-15------------------15-14-12------------
-----------------12-13-14----------------------------------14-13-12----
---------12-13-14------------------------------------------------------
-12-13-14--------------------------------------------------------------
-----------------------------------------------------------------------


-------------------------------------------------------12-14b----
-----------------------------------------------12-14-15----------
-12-14brp12---12-14brp12---12-14brp12--12-13-14------------------
-----------14-----------14-----------14--------------------------
-----------------------------------------------------------------
-----------------------------------------------------------------


-14b-14-14b-14-14b-14--16b-16b-16b-16brp14------
------------------------------------------16----
------------------------------------------------
------------------------------------------------
------------------------------------------------
------------------------------------------------

outro
------------------------------------------------------------
-6-6-6x6x6xx6-6x6-7~-6-6-6x6x6xx6-6-5s6-6-6-6-6-7~----------
-5-5-5x5x5xx5-5x5-6~-5-5-5x5x5xx5-5-4s5-5-5-5-5-6~----------
-4-4-4x4x4xx4-4x4-5~-4-4-4x4x4xx4-4-3s4-4-4-4-4-5~----------
-5-5-5x5x5xx5-5x5-6~-5-5-5x5x5xx5-5-4s5-5-5-5-5-6~----------
------------------------------------------------------------
 

Lenny-kravitz.com : English - Français - Deutsch - 中文

Designed by Muzilab™ Entertainement © 2012

page served in 0.008s