Lenny-kravitz.com     Muzilab.com
首页  |  生平  |  音乐专辑  |  歌曲名称  |  图片  |  情报中心  |  电影  |  链接  |  论坛

If you can't say no (Lenny Kravitz)
歌曲介绍  |  歌词  |  吉他乐谱

吉他乐谱

-||-19--19--19-19--19--19--19--19--19-19--19--19--19--19--19-19--19--19-&so on
-||---------------------------------------------------------------------------
-||---------------------------------------------------------------------------
-||---------------------------------------------------------------------------
-||---------------------------------------------------------------------------
-||---------------------------------------------------------------------------


there's only piano(or keybord.no idea)for verses.it sounds to me like:
-||-----------------------------------------------------|
-||--0----0--------0----0--------0----0--------0----0---|
-||--0----0--------0----0--------0-----0-------0----0---|
-||--2----2-4----4-2----2-4----4-2------4----4-2----2-4-|
-||---------2----2--------2----2--------2----2--------2-|
-||-----------------------------------------------------|

instead of (xx200x) you can play (x754xx),it sounds slightly better(@least on 
my accoustic),and it looks freaky.


when the 3rd verse begins,piano sounds like this(not exact.not bad neither):
-||---------------------------------------------------------------------------
-||------------------------------------------------------then it's something--
-||------------------------------------------------------else.tab it out on --
-||-----------------------------7------5----5------------your own.------------
-||-7----3-7----7-9----7-9----9-5----9-7----7-9----5-7------------------------
-||-5----5-5----5-7----5-7----7------7--------7----3-5------------------------


chorus,piano in the background:
-||--7-7------7-7------2-2------2-2-------------------------------------------
-||--8-8------8-8------3-3------3-3-------------------------------------------
-||--7-7------7-7------2-2------2-2-------------------------------------------
-||---------------------------------------------------------------------------
-||--mute strings immediately after you struck them---------------------------
-||------sounds like funk-----------------------------------------------------



solo:
-||-- h?----------------------------------------------------------------------
-||-12-14---------------------------------------------------------------------
-||---------11b\9-------------------------------------------------------------
-||---------------12\9-----12-14-15-14---12-15-14--\12--\9--------------------
-||---------------------------------------------------------------------------
-||---------------------------------------------------------------------------

-|--10-12br---12br-10-------------------------------------------------------||
-|--------------------12br--------------------------------------------------||
-|-----------------------------9-12-14-15-14---12-14-15-14--12\-\9----------||
-|--------------------------------------------------------------------------||
-|--------------------------------------------------------------------------||
-|--------------------------------------------------------------------------||
 

Lenny-kravitz.com : English - Français - Deutsch - 中文

Designed by Muzilab™ Entertainement © 2012

page served in 0.007s