Lenny-kravitz.com     Muzilab.com
首页  |  生平  |  音乐专辑  |  歌曲名称  |  图片  |  情报中心  |  电影  |  链接  |  论坛

Take time (Lenny Kravitz)
歌曲介绍  |  歌词  |  吉他乐谱

吉他乐谱

solo
|------------------------------------------------|
|------------------------------------------------|
|--14~~~----14b--14b---14b--14p12-----12~~~------|
|----------------------------------14--------14--|
|------------------------------------------------|
|------------------------------------------------|


|-------------------------------------------------------------------------------|
|---15b~~~---15bp12-----------------------15------15----------------------------|
|--------------------14bp12------12--14b-----14b------14b--14b--14p12------12---|
|----------------------------14----------------------------------------14-------|
|-------------------------------------------------------------------------------|
|-------------------------------------------------------------------------------|

|-----------|
|-----------|
|--14~~~~~--|
|-----------|
|-----------|
|-----------|
 

Lenny-kravitz.com : English - Français - Deutsch - 中文

Designed by Muzilab™ Entertainement © 2012

page served in 0.009s