Lenny-kravitz.com     Muzilab.com
首页  |  生平  |  音乐专辑  |  歌曲名称  |  图片  |  情报中心  |  电影  |  链接  |  论坛

Yesterday Is Gone (My Dear Kay) (Lenny Kravitz)
歌曲介绍  |  歌词  |  吉他乐谱

吉他乐谱

h : Hammer
  r : release
  \ : slide
  / : slide back

  I only worked out this solo, it sounds
  ok my email is ravenhunter@hotmail.com, so plz email if there are probs

  SOLO(2:21):
  ***********

E|----8-10\12---10r8----|-----8-10\12-10r8-10-13-12----------|
B|8-10---------------10-|-8-10-------------------------------|
G|----------------------|------------------------------------|
D|----------------------|------------------------------------|
A|----------------------|------------------------------------|
E|----------------------|------------------------------------|

E|-----8-10\12---10r8----|-8r7-------------------------------|
B|-8-10---------------10-|-----10r8-8h10-8-------------------|
G|-----------------------|-----------------9r8r7-5h7h8r7r5---|
D|-----------------------|---------------------------------8-|
A|-----------------------|-----------------------------------|
E|-----------------------|-----------------------------------|


E|-------8------|--------------------------------------------|
B|--\10---------|--------------------------------------------|
G|--------------|--------------------------------------------|
D|--------------|--------------------------------------------|
A|--------------|--------------------------------------------|
E|--------------|-3-3-3-3-3-5----0-6-6-6-6-6-8---6-8\10------|


E|---------------8-10h11r8--10\12-10-|--13/12-9h10--8--------|
B|---------8-8h10--------------------|-----------------------|
G|----7-7h9--------------------------|-----------------------|
D|-7h9-------------------------------|-----------------------|
A|-----------------------------------|-----------------------|
E|-----------------------------------|-----------------------|
 

Lenny-kravitz.com : English - Français - Deutsch - 中文

Designed by Muzilab™ Entertainement © 2012

page served in 0.008s