Lenny-kravitz.com     Muzilab.com
首页  |  生平  |  音乐专辑  |  歌曲名称  |  图片  |  情报中心  |  电影  |  链接  |  论坛

Stillness of Heart (Lenny Kravitz)
歌曲介绍  |  歌词  |  吉他乐谱

吉他乐谱

This song is in the key of Bb, and uses the chords of Bb, F, Eb,
and C.


Riff A:


This is the opening and between-verse riff, and is the only riff
used in the song. Distorted guitar.



|----------------------|
|----------------------|
|-------------8--------|
|--10---10^------10----|
|----------------------|
|----------------------|


Repeat the riff 4x. After this the verse follows:



Bb     F   or   F      Eb

6      8        1      6        E
8      8        3      6        A
8     10        3      8        D
7     10        4      8        G
6     10        1      8        B
6      x        1      x        E




Clean/Acoustic

Bb
I'm out...

          F     
... keep trying
       
         Eb
........trying



Now the chorus... the chorus follows the pattern of Bb, F, C, Eb,
all played as eighth-note power chords. With distortion.

   Bb          F           C           Eb
|------|    |------|    |------|    |------|
|------|    |------|    |------|    |------|
|------|    |------|    |------|    |------|
|------|    |--10--|    |------|    |---8--|
|--8---|    |---8--|    |--10--|    |---6--|
|--6---|    |------|    |---8--|    |------|



Bb          F
All...   ...want

   C
...heart
      Eb  Bb

...start

  F
...way

      C
...the dark
 
      Eb
...your heart



Now Riff A 2x, verse, chorus, then bridge:

Alternate between power chords F and C :

C       F       C
What... living

       F   C
...giving
    F         C
...forgiving

Anyone?


Solo time... F minor pentatonic works fine.

Tabbed by Michael Coetzee (cybermik@netactive.co.za)
 

Lenny-kravitz.com : English - Français - Deutsch - 中文

Designed by Muzilab™ Entertainement © 2012

page served in 0.042s