Lenny-kravitz.com     Muzilab.com
首页  |  生平  |  音乐专辑  |  歌曲名称  |  图片  |  情报中心  |  电影  |  链接  |  论坛

Minister Of Rock N Roll (Lenny Kravitz)
Words and Music by Lenny Kravitz
歌曲介绍  |  歌词  |  吉他乐谱

吉他乐谱

Tuning: STANDARD

VERSE FILL (You'd better stop foolin' around..etc...)

e|---------------------------------------------------------------|
B|---------------------------------------------------------------|
G|---------------------------------------------------------------|
D|---------------------------------------------------------------|
A|-8-8-10-8-5-5-7-5----------------------------------------------|
E|-6-6-6--6-3-3-3-3----------------------------------------------|

CHORUS (You can call me you know I will be right there...)

e|---------------------------------------------------------------|
B|---------------------------------------------------------------|
G|---------------------------------------------------------------|
D|-3-3-5-3-5-5-7-5-----------------3-3-5-3-5-5-7-5----7----------|
A|-1-1-1-1-3-3-3-3-3-3-5-3-5-5-7-5-1-1-1-1-3-3-3-3----5----------|
E|-----------------1-1-1-1-3-3-3-3-------------------------------|

SOLO (rhythm guitar)

e|---------------------------------------------------------------|
B|---------------------------------------------------------------|
G|---------------------------------------------------------------|
D|-----------------------------3-3-5-3-3-3-5-3-5-5-7-5-5-5-7-5(7)|
A|3-5-3--5--3-5-3--5--3-5-3--5-1-1-1-1-1-1-1-1-3-3-3-3-3-3-3-3(5)|
E|---------------------------------------------------------------|

SOLO (lead guitar)

e|-------------------------------------------------------6vv-----|
B|-8b10---10-10-10-10-10-10-10-10-10-10r8p5----------6-8---------|
G|------------------------------------------7---/5-7-------------|
D|---------------------------------------------------------------|
A|---------------------------------------------------------------|
E|---------------------------------------------------------------|

e|-------------8vv----10-----------------------------------------|
B|--------8-10--------13b----------------------------------------|
G|------9--------------------------------------------------------|
D|--/10----------------------------------------------------------|
A|---------------------------------------------------------------|
E|---------------------------------------------------------------|

LOOP CHORUS (only after the solo)

e|---------------------------------------------------------------|
B|---------------------------------------------------------------|
G|---------------------------------------------------------------|
D|-3-3-5-3-5-5-7-5-----------------3-3-5-3--REPEAT ALL 4 TIMES---|
A|-1-1-1-1-3-3-3-3-3-3-5-3-5-5-7-5-1-1-1-1-----------------------|
E|-----------------1-1-1-1-3-3-3-3-------------------------------|

OUTRO

e|---------------------------------------------------------------|
B|-3--5--6--8--10--11--13-------CLOSING ASCENDING SCALE BY SYNTH-|
G|---------------------------------ARRANGED FOR GUITAR-----------|
D|---------------------------------------------------------------|
A|---------------------------------------------------------------|
E|---------------------------------------------------------------|


| / slide up
| \ slide down
| h hammer-on
| p pull-off
| ~ vibrato
| + harmonic
| x Mute note
 
Tabbed by: Domenico Lovascio (lovabros@virgilio.it)
 

Lenny-kravitz.com : English - Français - Deutsch - 中文

Designed by Muzilab™ Entertainement © 2012

page served in 0.006s