Lenny-kravitz.com     Muzilab.com
首页  |  生平  |  音乐专辑  |  歌曲名称  |  图片  |  情报中心  |  电影  |  链接  |  论坛

California (Lenny Kravitz)
Words and Music by Lenny Kravitz
歌曲介绍  |  歌词  |  吉他乐谱

吉他乐谱

------------------------------------------------------------------------------
------------------------------------------------------------------------------
-------------------------------------------------x-5-5---4-4-4----------------
-2-2-2-2-2-2-2-2-6-6-6-6-6-6-6-6-7-7-7-7-7-7-7-7-x-5-5---4-4-4----------------
-2-2-2-2-2-2-2-2-6-6-6-6-6-6-6-6-7-7-7-7-7-7-7-7-x-3-3---2-2-2----------------
-0-0-0-0-0-0-0-0-4-4-4-4-4-4-4-4-5-5-5-5-5-5-5-5------------------------------
 main riff/intro                                                              

---------------------------------|--------------------------------------------
---------------------------------|--------------------------------------------
-----------------4-4-4-4-4-4-4-4-|-6-6-6-6-6-6-6-6-7-7-7-7-7-7-7-7------------
-4-4-4-4-4-4-4-4-4-4-4-4-4-4-4-4-|-6-6-6-6-6-6-6-6-7-7-7-7-7-7-7-7------------
-4-4-4-4-4-4-4-4-2-2-2-2-2-2-2-2-|-4-4-4-4-4-4-4-4-5-5-5-5-5-5-5-5------------
-2-2-2-2-2-2-2-2-----------------|--------------------------------------------
 bridge                                                                       

------------------------------------------------------------------------------
------------------------------------------------------------------------------
------------------------------------------------------------------------------
-2-------------2-----------2--5-5-5-5-5-5-5-5-7-7-7-7-7-7-7-7-----------------
-2-------------2-----------2--5-5-5-5-5-5-5-5-7-7-7-7-7-7-7-7-----------------
-0-0-b3-0-b3-0-0-0-b3-0-b3-0--3-3-3-3-3-3-3-3-5-5-5-5-5-5-5-5-----------------
Something                                                               

Solo
------------------------------------------------------------------------------
------------------------------------------------------------------------------
--9/16-16-16-16-----16-18-20-16--14-16-14-13-11-----9-b11p9-11-9--------------
-------------------------------------------------11---------------------------
------------------------------------------------------------------------------
------------------------------------------------------------------------------
 Solo                                                                         

-15p12----15p12----15p12----15p12----15p14p12-15p14p12------------------------
-------12-------12-------12-------12-----------------------12-----12------12--
-------------------------------------------------------b14----b14-----b14-----
------------------------------------------------------------------------------
------------------------------------------------------------------------------
------------------------------------------------------------------------------
 

Lenny-kravitz.com : English - Français - Deutsch - 中文

Designed by Muzilab™ Entertainement © 2012

page served in 0.007s