Lenny-kravitz.com     Muzilab.com
Home  |  Biographie  |  Discographie  |  Liede / Lyriken  |  Fotos  |  Tourdaten  |  Dokumentation  |  Videos  |  Links  |  Forum

Lenny Kravitz : Tabulaturen für Bass
Tabulaturen für Bass von Lenny Kravitz. Again, Always on the run, American Woman, Are you gonna go my way, Believe, Fly Away, I Belong To You, It Ain't Over 'til it's Over, Let Love Rule, Mr. Cab Driver, Thinking Of you
Again
Always on the run
American Woman
Are you gonna go my way
Believe
Fly Away
I Belong To You
It Ain't Over 'til it's Over
Let Love Rule
Mr. Cab Driver
Thinking Of you



Again
Artist: Lenny Kravitz
Album: Greatest Hits
Tabbed by: Bobby (Slow@sowega.net)

Intro..
G|-----------------------------------------------------|
D|-----------------------------------------------------|
A|-----------------------------------/7-777-777-777-5--|
E|-5-555-555-555-4--2-222-222-222-1--------------------|

Verse 1..
G|-----------------------------------------------------|
D|-----------------------------------------------------|
A|-5-555-555-555-5--7-777-7h9-999-9--------------------|
E|-----------------------------------------------------|
(play this 3 times and on the fourth time play this..)
G|-----------------------------------------------------|
D|-----------------------------------------------------|
A|-5-555-555-555-5-------------------------------------|
E|------------------0-000-0h2-222-2--------------------|

Chorus 1..
G|---------------------------------------------------------------------|
D|---------------------------------------------------------------------|
A|----------------------------------/7-777-777-777-7-5-555-555-555-5h7-|
E|-5-555-555-555-4-2-222-222-222-1-------------------------------------|
G|---------------------------------------------------------------------|
D|---------------------------------------------------------------------|
A|------------------------------/987-777-777-777-7-5-555-555-5---------|
E|-5-555-555-555-4-2-222-222-22----------------------------------------|

Verse 2.. (Play verse 1 figure again)
Chorus 2 is pretty much the same as Chorus 1 but since there's a slight
variation at the end i'll include it..
G|---------------------------------------------------------------------|
D|---------------------------------------------------------------------|
A|----------------------------------/7-777-777-777-7-5-555-555-555-5h7-|
E|-5-555-555-555-4-2-222-222-222-1-------------------------------------|
G|---------------------------------------------------------------------|
D|---------------------------------------------------------------------|
A|----------------------------------/7-777-777-777-65------------------|
E|-5-555-555-555-4-2-222-222-222-1--------------------22345------------|

(There's no bass at the interlude)..
(For the guitar solo play the first part of chorus 1 and the second part of chorus 2)
Chorus 3 play chorus figure 2 till fade...
and thats pretty much it pretty simple



Always on the run
From the release: Mama Said
Primary by: Lenny Kravitz
Tabbed by: Andreas von Schéele
Email: fenderjazzbas@hotmail.com

Intro.
                 
4/4   1    2      3        4            1
G--I-----------9-12-12-12-11--7-8----I--9--
D--I---------------------------------I-----
A--I---------------------------------I-----
E--I---------------------------------I-----


This is the interlude after The intro. and even between verse and ref.

4/4   1  2  3  4  1  2  3  4     1  2  3  4  1  2  3  4
G--I--9---------------------------------------------------I
D--I------------------------------------------------------I
A--I---------------------4/5-5-7----------------------5-5-I
E--I---0--0-0-----0---0-0--------0---0-0-----0---0-0------I


Verse. (Here you can improvise ex. slide and slap)
Basic line:

4/4  1  2  3  4  1  2  3  4  1     2  3  4     1       etc.
G--I-----------------------------------------I-----
D--I-----------------------------------------I-----
A--I-7---5-7---5-7---5-7---------------5-7-5-I-7---
E--I--0--------------------0-3-3-3-0---------I--0--


Ref.
                               
4/4  1   2       3   4         1  2  3  4    1   2       3     4
G--I-------------------------I-------------I-------------------------I
D--I-------------------------I-------------I-------------------------I
A--I-----2-3-4-5-----4-5-6-7-I--------12--I-----2-3-4-5-------------I
E--I-3-3---------5-5---------I-0--0-0------I-3-3---------5-5-0-3-3-3-I


Solo.
4/4  4      1   2   3   4   1     2   3       4
G--------I--------------------------------------------I
D--------I--------------------5h7-7-7-7-5-------------I
A--------I--------------------------------7-6-53-----I
E--0-3-4-I--5-5-5-5-5-5-5-5-5---------------------5-3-I


   
4/4  1    2    3    4    1    2    3    4
G--I------------------------------------------I
D--I------------------------------------------I
A--I------------------------------------------I
E--I-0-0-----0-0-------0-0-------0-0--0-4-5-6-I



4/4  1   2   3   4     1       2       3    4
G--I-------------------------------------------------I
D--I-----------------7h9-7h9-7h9-7h9-7-5-------------I
A--I---------6-7-8-9---------------------7-6-5-3-----I
E--I-7-7-7-7-------------------------------------0---I

                                   (Here Lenny plays very fast)



American Woman
tabbed by Achilles (blue_sincere@hotmail.com)
bass only plays during the chorus

 chorus riff x4
G|-------------|
D|-------------|
A|33333-1-3---|
E|-------------|

bass plays the chorus riff at about 1:43 during the solo
  
  solo end riff
G|-----------|
D|-----------|
A|33333-13---|
E|-----------|




Are you gonna go my way
gemini67@globalfreeway.com.au

|-------|------------------------|------------------|-------------------|
|-------|------------------------|------------------|-------------------|
|-------|-----/17-19-19-19-19-19|-7--7------5p7--5-|-7--7-----5-7-5----|
|-------|------------------------|-------(7)--------|------(7)-------7--|

|-----------------|---------------------|-------------------|
|-----------------|---------------------|-------------------|
|-7--7-----5p7--5-|-7-----7-----x-x-4---|-7--7-----5-7-4----|
|------(7)--------|---(7)---(7)-------7-|------(7)-------7--|   
                
|------------------|
|------------------| X3
|-7--7-----5-7-4---|
|------(7)-------7-|

|-------------|--------------|--------------|------------------|
|-------------|--------------|--------------|------------------|
|-7-----7---5-|-7--7--7--7-5-|-7--7--7--7-5-|-7--7--------7-5--|

|----0--------|--------------|--------------|------7--(7)------| I was born

||----------------||    |----------------|-------------|---------------|
||o--------------o|| X3 |----------------|-------------|--------3-5-3--|
||o-7--7--7--7-5-o||    |-7--7--7--7-----|-------------|---------------|
||----------------||    |------------(7)-|-3--3--3---1-|-3--3----------|

|--------------|-------------------------|----------------|
|-5------------|-------------------------|----------------|
|--------------|-------------------------|-7--7--7-5-7-5--|
|----3--3--3-1-|-x-3-x-3-x-3-(3)-3-2-1-0-|----------------|

|---------------|--------------|-----------------|------------------|
|---------------|--------------|-----------------|------------------|
|-7--7--7-5-7-5-|-7--7---5-7-5-|-7--7--7-5-7-----|------------------|
|---------------|--------------|-------------(0)-|-3-3-3-3-3-3-3-3--|

|----------------||----------------|------------------|----------------|
|----------------||----------------|------------------|----------------|
|----------------||-7--7-7-7-5-7-5-|-7-----7-5-7-5---|----------------|
|-2-2-2-2-2-2-2-||----------------|---(7)----------7-|-3-3-3-3-3-3--2-|

                    1st chorus               3 bars
|------------|--------|-----------------------|---------------|
|------------|--------|-----------------------|---------------|
|------------|--------|-----16-16-16-16-16-17-|-7--7--5p7--5--|
|-(2)--------|--------|-----------------------|---------------|

||------------------||     |---------------||-----------------||
||o----------------o|| X3  |---------------||o---------------o|| 
||o-7--7---5-7-5-7-o||     |-7--------5----||o-7--7--7---5-7-o||
||-------7----------||     |----0---7---7--||----------7------||

                            I dont know why  
|----------------|   ||------------------||      |-------------|
|----------------|   ||o----------------o|| X4   |-------------|
|-7--7-5-7-5-7-5-|   ||o-7--7--7---5-7--o||      |-------------|
|----------------|   ||----------7-------||      |-3--3--3--1--|

|--------------|-----------------|-------------|
|--------3-5-3-|-----------------|-------------|
|--------------|-----------------|----------5--|
|-3--3---------|-3-3---3--3--3---|-3-3--3-3----|

|--------------|----------------|--------------|-------------|
|--------------|----------------|--------------|-------------|
|-7--7--7--7-5-|-7--7--7--5-7-5-|-7--7--7--7-5-|-7--7--7--7--|
|--------------|----------------|--------------|-------------|

|-----------------|-------------------|------------------|
|-----------------|-------------------|------------------|
|-----------------|---------2-2-2-4-5-|-7--7---5-7-7-5---|
|-3-3-3-3-3-3-3-3-|-2-2-2-2-----------|------7---------7-|

                                         8 bars
|---------------------|----------------|--------|
|---------------------|----------------|--------|
|-7--7---5-5-7-7--5---|-------5-5-5-5-|--------|
|------7------------0-|-3-3-3----------|--------|

|----13-11-13-11-(11)-9--11-|--9-----------||---------------------|
|---------------------------|--------------||---------------5-6-7-|
|---------------------------|-------2-4-2--||-7-7---5-5-(5)-------|
|---------------------------|--------------||-----0---------------|

                                              Solo
|--------------------|----------------|--------------------|
|-(7)-5-6-7----------|----------------|--------------------|
|------------4-5-5-6-|-7---7-5--7-8-9-|--9-10-12-12-0-4-5--|
|--------------------|---7------------|--------------------|

|----------------|----------------|----------------|----------------|
|----------------|----------------|----------------|----------------|
|-7---7-5-------|--3-4-5-5---4-5-|-7---7-5--7-8-9-|--2-3-4--4-5-6--|
|---7------3-2-5-|----------5-----|---7------------|----------------|

|------------------|---------------|------------------|------------------|
|------------2-3-4-|--5-6-7--------|------------------|------------------|
|-7-----7-5--------|---------4-5-6-|---7-6-5----------|---2-3-4-2-4-5-6--|
|---0-0------------|---------------|-7--------2-2-3-4-|-5----------------|

|----------------|-----4-5-7-7-------|----------------|--------|------||
|----------4-5-7-|-(7)---------7-----|----------------|--------|------||
|-7---7-5--------|---------------5-6-|-7---7-5--------|--------|------||
|---7------------|-------------------|---7------5-7-5-|-(5)----|-(5)--||

|---------------|----------------|---------------|-----------------|
|---------------|----------------|---------------|-----------------|
|-7--7---5-7--5-|-7--7---5-7-5---|-7--7---5-7--5-|-7--7---5-7-5----|
|------7--------|------7-------7-|------7--------|------7-------7--|

|---------------|---------------|----------------|-----------------|
|---------------|---------------|----------------|-----------------|
|-7--7---5-7--5-|-7--7--5-7-5---|-7--7---5-7-7-5-|-7--7---5-7-5----|
|------7--------|-------------7-|------7---------|------7-------7--|

|-----------------|---------|-----------------|----------------||
|-----------------|---------|-----------------|----------------||
|-----------------|---------|-----------------|----------------||
|-3-3-3-3-3-3-3-3-|-2-2-2-2-|-3-3-3-3-3-3-3-2-|-(2)-2-2-2-(2)--||

|---------------|----------------|-----------------|------*|
|---------------|----------------|-----------------|------*|
|-7--7---5-7-5-|-7--7---5-7-5---|-----------------|------*|
|------7--------|------7-------7-|-3-3-3-3-3-3-3-2-|-(2)--*|




Believe
Tabbed by Jean-Gabriel STEINMETZ ( jeangabi@club-internet.fr )

 Intro

I am you...	If you want it...
G-------------------------------------------------------------------------------
D-----------------------------------------------------------------------9-------
A----------------------------------------------------------7--5----7-10---10----
E--5-----1-----5-----1-----5-----1-----3-5-----1-----1/5---------8--------------

Who are we		But who we are	We've got...
G-------------------13-12-10----------------------------------------------------------
D----------------------------12-11-10-------------------------------------------------
A-------------------------------------10-12--------------------------------------7--5-
E-5--0-5---5---1/10-------------------------12-10-8-5---0-5-5--3--1--1-1--1--1/5------

yeah...
G------------------
D----------7-------
A-5---7-10---10--5-
E---8--------------

Chorus
	if you want it, you got it, you've just got to believe, believe in yourself
G---------------------------------------------------------------------------
D--------------------------------------------------------/5---3-------------
A------1-----------------------------------7----6-----3-------------------0-
E-1h3--------5--------3----------1------/5--------------------------1--3----

	'cause it's all just a game, we just want to be loved
G----------------------------------------------------4-5-4---------
D--------------------------------------------------6-------6-------
A--1------------------------------------7----6---7-----------7-----
E--------5------3-----------1-------/5-----------------------------

Verse

G--------------------------------------------------------------------------------------
D---------------------------------------------------------------------------7----------
A-------------------------------------------------------------7--5-5---7-10---10-------
E--5---0-5-5--3--1---1-1-1--3--5---0-5-5--3--1---1-1-1--0-1/5--------8------------10---


G--------------------------------------------------------------------------------------
D----------------------------------------------------------------------------7---------
A------------------------------------------------------------7--5--5----7-10---10------
E-0-5---0-5-5--3--1---1-1-3-4-5---0-5-5--3--1---1-1-1--0-1/5---------8------------10---


Play Chorus 

Verse

G-------------------13-12-10--------------------------------------------------------------
D----------------------------12-11-10----------------------------------3h5p3--------------
A-------------------------------------10-12------------------------3h5--------3h5p3-------
E-5--0-5-5---1/10---------------------------12-10-8-5---0-5-5--3--------------------1h3p1-

	if you want it, you've got to believe yeah..
G-----------------------------------
D--------------------------7--------
A--7-------5----5-----7-10---10-----
E------------------8------------10--

Play Chorus 

Solo


G------------------------------------------------------------------------------------
D------------------------------------------------------------------------------------
A-------------------------7--7-8----7-5---5-5----------------------------------------
E---5---5-3-1-1--3-3--/5----------------8------3---3-3--3-3-3---0-3-4-5---5-3-1-1--3-


G---------------------------------------------------------------------------------------------
D---------------------------------------------------------------------------------------------
A----------10-8-7--7-8--7-5---5-5--------------------------------------------7--7-8----7-5----
E--/7--10-------------------8-----3--3-3--3-3-3---0-3-4-5---5-3-1-1--3--3-/5----------------8-


G-------------------------------------
D-------------------------------------
A--5-7-5---5--------------------------
E--------8---3-3-3--3-3-3---0-3-4-5--- repeat solo part and fade...


h: hammer on
p: pull off




Fly Away
Album: Five
Author: Rattman (jratt0@hotmail.com)
**Padrino's Bass Tab Exclusive!**

Josh (armagedo@maine.rr.com)
says that a DOD Stereo Phaser Pedal is used in the verse of this song.

Intro/Chorus:
G-------------------------------------------------
D-------------------------------------0-0-0-0-0-0-
A-0-0-0-0-0-0-3-3-3-3-3-3-------------------------
E-------------------------3-3-3-3-3-3-------------

Verse:
G------------------------------------
D---------------------------0/12-*12-
A-0/12-*12-3/15-*15------------------
E-------------------3/15-*15---------
*=Pluck




I Belong To You
Tabbed by Achilles (blue_sincere@hotmail.com)
intro
   (x2)
G|------------|---------------------------|
D|------------|---------------------------|
A|3-33-3-13---|---------------------------|
E|------------|3-33-3-13---0123-33-3-13---|

  verse 1 (x2)
G|--------------------------------------------|
D|--------------------------------------------|
A|1--33--33---33--33---3h5--------------------|
E|--------------------------33--33---33--33---|

  chorus 1 (x2)
G|-------------------------------------------------------------|
D|-----55-5-5---------55-5-5--------------------5-------------|
A|1--3-------3---0123-------3---3h5--5-55-5-5------5-55-5-5----|
E|-------------------------------------------3-------------3---|

  verse 2
G|------------------------------------------------------------------------------345-----------
D|-----------------------------------------------------------------------------5--------------
A|1--3-33-3-13---0123-33-3-13---3h5-----------------------------1--3-33-3-13--------33-3-13---
E|-----------------------------------3-33-3-13---0123-33-3-13---------------------------------

--------------------------------------------------------------------------------------------
----------------------55-5-5----------------------------------------------------------------
3h5-----------------------------1--3-33-3-13---0123-33-3-13---3h5----------------------1----
-----3-33-3-13---0123-------3--------------------------------------3-33-3-13----0123333-3---

----------------345----------------------------------------------------------------------------
---------------5-------------------------------------------------------------------------------
1--3-33-3-13--------33-3-13---3h5---------------------------1--3-33-3-13---0123-33-3-13---3h5--
-----------------------------------3-33-3-13-0123-33-3-13--------------------------------------

---------------------------|
---------------------------|
---------------------------|
3-33-3-13---0123-33-3-13---|




It Ain't Over 'til it's Over
Tabbed by JG Steinmetz(jeangabi@club-internet.fr)
Intro 
G-+---------------------------------------------------------------------------------+ 
D-|-*-----------------------------------------------1-----------------------------*-| 
A-|-*-4--4--4-4------1-4--4--4-4------1-4--4--1-4-4---4-1--------------0-0--------*-| 
E-+--------------1-4--------------1-4----------------------4-2--2--2-2-----1-4-4----+ 

verse 1 
G-+----------------------------------------------------------------------------------+ 
D-|-*------------------------------------------------------------------------------*-| 
A-|-*-4--4--4-4-4--1-4-1-3--3--3-3-----3---2-2--2---2-2-4-2----------------0-0-----*-| 
E-+----------------------------------4---4--------4---------4-1-2--2--2-2------4-4---+ 
chorus 
G-+---------------------------------------------------------------------------------+ 
D-|-*-----------------------------------------------1-----------------------------*-| 
A-|-*-4--4--4-4------1-4--4--4-4------1-4--4--1-4-4---4-1--------------0-0--------*-| 
E-+--------------1-4--------------1-4----------------------4-2--2--2-2-----1-4-4----+ 
verse 2 
G-+-------------------------------------------------------------------------------+ 
D-|-------------------------------------------------------------------------------| 
A-|-4--4--4-4-4--1-4-1-3--3--3-3-----3---2-2--2---2-2-4-2----------------0-0------| 
E-+--------------------------------4---4--------4---------4-1-2--2--2-2------4-4--+ 
(changing his voice) 
G-+------------1-1-1------------1-1-1-1---------------------------------------------------+ 
D-|---------------------------------------------------------------------------------------| 
A-|-4--4--4-4--------4-3--3--3--------------3-2--2--2----2---4-2--------------0-0-0-0-----| 
E-+----------------------------------------------------4---4-----4-1-2--2---2---------4-4-+ 

chorus 
G-+---------------------------------------------------------------------------------+ 
D-|-*-----------------------------------------------1-----------------------------*-| 
A-|-*-4--4--4-4------1-4--4--4-4------1-4--4--1-4-4---4-1--------------0-0--------*-| 
E-+--------------1-4--------------1-4----------------------4-2--2--2-2-----1-4-4----+ 

Solo 
G---------------------------------------------------------------------------------------------- 
D------------------------------------------------------------------------------------------0-2- 
A--0---0--0-0-0----0-1-2---2--2--2---2-4-4-2-----------------------------------------0-0-4----- 
E----------------2---------------------------2--2--2-2-2--0-2-3-4---4--4-4-4--0--4-4----------- 

G--2--2-2-2-2----------------4-4-4-4----------------------------------------------------------- 
D---------------------1-2-4-------------------------------------------------------------------- 
A-------------0--2-2-----------------2/-----------------------------------------15-15---------- 
E----------------------------------------2--2--2-2-2--0-2-3-4--4-4-4-4-...-4-4/-------13/--4-4- 

G------------------+ 
D------------------| 
A--------15-15-----| 
E-----4/-------13/-+ 

Chorus 
G-+----6----------------6-----------------6---------------------------------------------------- 
D-|---------------------------------------------------1-----------------------------3-4-5-6--6- 
A-|-4----4--4-4-----1-4---4--4-4------1-4----4--4-4-4---4-1--------------------4--4------------ 
E-+-------------1-4---------------1-4-----------------------4-2-2--2-5-5-5-4-4----------------- 

G--8-6--------------------------------------------------------------+ 
D------6-3----------------1-----------------------------------------| 
A----------4--4--4--1-4-4---4-1--4--4--4------------------0-0-------| 
E----------------------------------------1-2-3-4-4-2-2--2-----4-4---+



Let Love Rule
Tabbed by Jérôme FOULET (jerome.foulet@free.fr)
---
Strings: E ,A ,D ,G 
Symbols explanations:
  H: hammer on  P: pull off
  +: slap       .: pop
  : slide up   /: slide down
  --x~~x~~x: triplets
====================


Verse 1

G -------------------------------------------------------------------------------
D -------------------------------------------------------------------------------
A --7-----5--7--------------------------8--9-10----10--9--8--7-------------------
E -----------------0--0--1--2--3----10-----------------------------3--0-----0--0-


G -------------------------------------------------------------------------------
D --------------------------------------------------------------------5--5--7--7-
A -----------------8--9-10----10-11-12--------4--4--5--5--6--6--7--7-------------
E --1--2--3----10--------------------------5-------------------------------------


G ----------------------------------
D -10-------------------------------
A -----------7--7--8--8--9--9-10---
E -------10-------------------------

Chorus 1 : repeat X 2

G -------------------------------------------------------------------------------
D -------------------------------------------------------------------------------
A --------------------------------------------------3--3--3--3--3--3-------------
E --3--3--3--3--3--3--3--3--5--5--5--5--5--5--5--5--------------------0--3-------


G ---------------------
D ---------------------
A ---------------------
E -3-33-3333--3/15----

Verse 2

G -------------------------------------------------------------------------------
D -------------------------------------------------------------------------------
A --7-----5--7--------------------------8--9-10----10--9--8--7-------------------
E -----------------0--0--1--2--3----10-----------------------------3--0-----0--0-


G -------------------------------------------------------------------------------
D -------------------------------------------------------------------------------
A --------------------8--9-10---/-9-10-10--9--8--7-----5--7----------------------
E --1--2--3----10-10--------------------------------------------0--0--1--2--3----


G -------------------------------------------------------12-12-14----------------
D ----------------------------------11-12-12-13-13-14-14-------------------------
A -----8--9-10---/--10-11-12----12----------------------------------------------
E -10--------------------------------------------------------------0--3-33--5555-


G ----------
D ----------
A ----------
E -6666-7--

Chorus 2 : repeat X 2

G -------------------------------------------------------------------------------
D -------------------------------------------------------------------------------

A --------------------------------------------------3--3--3--3--3--3-------------
E --3--3--3--3--3--3--3--3--5--5--5--5--5--5--5--5--------------------0--3-----3-


G ---------------------
D ---------------------
A ---------------------
E -3-33-3333--3/15----

Sax Solo

G --------------------------------------------------------------------------------
D --------------------------------------------------------------------------------
A --7-----5--7--------------------------8--9-10----11----12----13----14----------
E -----------------0--0--1--2--3----10------------------------------------0-----3-


G -------------------------------------------------------------------------------
D -------------------------------------------------------------------------------
A --------------------------------8--9-10----10--9--8--7-----5--7----------------
E --3--0-----0--0--1--2--3----10--------------------------------------0--0--1--2-


G -------------------------------------------------------------12-14------/17----
D -------------------------------------11-11-12-12-13-13-14-14-------------------
A -----------8--9-10-/-10-11-12----12-------------------------------------------
E --3----10-----------------------------------------------------------0----------


G -------------------------------------------------------------------------------
D -------------------------------------------------------------------------------
A -------------------------------------------------------------------------------
E --0--0--1--1--2--2--3---------------------------------------------------------

Chorus 3 : repeat X 2

G -------------------------------------------------------------------------------
D -------------------------------------------------------------------------------
A --------------------------------------------------3--3--3--3--3--3-------------
E --3--3--3--3--3--3--3--3--5--5--5--5--5--5--5--5--------------------0--3-----3-

Ending 1

G ---------------------
D ---------------------
A ---------------------
E -3-33-3333--3/15----

Ending 2

G -----------------------------
D -----------------------------
A -----3--3--4--4--5--5--6-----
E --3-----------------------0--


G -------------------------------------------------------------------------------
D -------------------------------------------------------------------------------
A --------------------------------------------------3--3--3--3--3--3----------10-
E --3--3--3--3--3--3--3--3--6--6--6--6--6--5--6--7--------------------0--3-------


G --------------------------------
D --------------------------------
A -10--8-10--8--------------------
E -------------10--9--8--6--3--3--


G -------------------------------------------------------------------------------
D -------------------------------------------------------------------------------
A --------------------------------------------------3--3--3--3--3--3-------------
E --3--3--3--3--3--3--3--3--5--5--5--5--5--5--5--5--------------------0--3-----3-


G ---------------------
D ---------------------
A ---------------------
E -3-33-3333--3/15----


G -------------------------------------------------------------------------------
D --------------------------------------------------------2--2--3--3--4--4--5--5-
A --------------------------------------------------3--3-------------------------
E --3--3--3--3--3--3--3--3--6--6--6--6--6--5--6--7-------------------------------
                                                                             

G --7--7-12-12-12-12-12-12--------
D --------------------------------
A --------------------------------
E --------------------------------

Outro : repeat ad lib (different each time)

G -------------------------------------------------------------------------------
D --------5--------------------------5--------------5--3-------------------------
A -----------------------------------------------5--------5--4--3----------------
E --3--3-----3--3-----0--1--2--3--3-----3--3-----------------------6--3----------




Mr. Cab Driver
tabbed by Achilles (blue_sincere@hotmail.com)

  verse (repeat)
    (x4)                          (x2)                         (x2)
G|-----------|----------------|-----------|----------------|-----------|----------------|
D|-----------|----------------|-----------|----------------|-----------|----------------|
A|-----------|--------55555555|-----------|5555555534342323|-----------|7777777755555555|
E|5--553--030|55555555--------|5--553--030|----------------|5--553--030|----------------|

  solo
G|-----------------------------------------------------------------797979999-|
D|---4--5--6--774----------------------4--5--6--774---------------------------|
A|5-------------------4--5--6--774--5----------------------77777777-----------|
E|-----------------5-------------------------------77777777-------------------|

  "Mr. Cab Driver" riff
G|-----------------|
D|-----------------|
A|-----------------|
E|555555555553--030|

  "Let me in  whoah oh"
G|-----------------------------------|
D|-----------------------------------|
A|55555555--------77777777575757777-|
E|--------77777777-------------------|




Thinking Of you
Transcribed by:Mattia Tognin (mattiatognin@libero.it)
x mute the string
~ dragging
* slap


Riff
G--------------------------------------------------------------
D-----------57-------------------------------------------------
A---------------------------------3----------------------------
E--35-5-35-----5~~~----35-5-35-35---5--------------------------

G--------------------------------------------------------------
D-----------57x------------------------------------------------
A---------------------------------5-3--------------------------
E--35-5-35-----5~~~----35-5-35-35------------------------------

Chorus1
G--------------------------------------------------------------
D-----------------1097-77--------------------------------------
A--7-6-55-57-7-77---------5-557-88-87-77-----------------------
E----------------------------------------3455-55-5-------------

G--------------------------------------------------------------
D-----------------1097-77--------------------------------------
A--7-6-55-57-7-77---------5-557-88-87-777--57------------------
E--------------------------------------------------------------

Chorus2
G--------------------------------------------------------------
D-----------------1097-77--------------------------------------
A--7-6-55-57-7-77---------5-557-88-87-77-----------------------
E----------------------------------------3455-55-5-------------

G--------------------------7*7*--------------------------------
D-----------------1097-77--------------------------------------
A--7-6-55-57-7-77---------5-5--7-88-87-77----------------------
E-----------------------------------------3455-55-5------------

G----------------------987-------------------------------------
D-----------------1097-----------------------------------------
A--7-6-55-57-7-77------------57-88-87-77-----------------------
E-----------------------------------------3455-55-5------------

G--------------------------7*7*--------------------------------
D-----------------1097-77--------------------------------------
A--7-6-55-57-7-77---------5-5--7-88-87-77----------------------
E--------------------------------------------------------------

Solo Guitar
G--------------------------------------------------------------
D--------------------------------------------------------------
A--8-8-8-8-8---5-5-5-5-5---------------------------------------
E---------------------------35-5-5-35--5--35-5-35-35-----------

G--------------------------------------------------------------
D--------------------------------------------------------------
A--5-5-5-5--33-3-8-88------------------------------------------
E---------------------------35-5-5-35---5--35-5-35-35---------

G--------------------------------------------------------------
D--------------------------------------------------------------
A--765-5-5-5-5-5--7-7-7-7-7-8-8-8-8-8-9-9-9-9~~~---------------
E--------------------------------------------------------------

G--------------------------------------------------------------
D--------------------------------------------------------------
A--5-5-5-5-55--7-7-7-77-7--------------------------------------
E---------------------------35-5-5-35---5--35-5-35-35----------

G---------------------9*9*-------------------------------------
D--------------------------------------------------------------
A--5-5-5-5-55--7-7-7-7-7----8-8-8-88-8--10-10-10-1010-10-12~~~-
E--------------------------------------------------------------

 

Lenny-kravitz.com : Deutsch - Englisch - Französisch - Chinesisch

Designed by Muzilab™ Entertainement © 2012

page served in 0.007s