Lenny-kravitz.com     Muzilab.com
Home  |  Biographie  |  Discographie  |  Liede / Lyriken  |  Fotos  |  Tourdaten  |  Dokumentation  |  Videos  |  Links  |  Forum

Fields of joy (Lenny Kravitz)
Infos  |  Lyriken  |  Guitarre

Guitarre

Intro


e-----------------------|------------------------------|-
b-----------------------|------------------------------|-
g-----------------------|------------------------------|-
d-----------------------|------------------------------|-
a-------9---------9-----|-----9---7----7--6--6---------|-
e--7--------5---------4-|---------3----3--3--3---------|-  Repeat


This is the riff that appears half way through

You have to listen for the changes in time - rhythm varies on each
repeat, but overall very easy riff to play
e----------------------------------|---------------------------|-
b----------------------------------|---------------------------|-
g----------------------7--7--x-x-x-|-9--9--x-x-x---------------|-
d--9---9---x--x--x--x--7--7--x-x-x-|-9--9--x-x-x--5--x--5-x--7-|-
a--9---9---x--x--x--x--5--5--x-x-x-|-7--7--x-x-x--5--x--5-x--7-|-
e--7---7---x--x--x--x--------------|--------------3--x--3-x--5-|-


From: gesellen@namu01.gwdg.de
Subject: SUBSCRIPTION/REVIEW/FEEDBACK
Date: Tue, 04 Jul 95 17:12:23 +0200

Lenny Kravitz - Fields of Joy
       (according to Ralf ,
        SOLO by Andreas )

Thanx to Andreas   whose frame I am using
- unfortunately my transcription of the TABs and chords is different, so
this is my version of how I perceive the really excellent song. (Ralf):

Special chords for the middle part:
          EAdgbe
B(VII)    799877   \  you should stress the bass strings (E-d)
D/A       557775   |  and preferably omit the discant ones
E/G#      476454   |  which allows you to cope with the fingering
G(III)    355433   /  slightly easier, too

All words following are originally from Andreas - I only changed 
the chords and TABS (except SOLO):

"This is a favorite of mine. Maybe the solo isn't perfect, please mail
me if you find anything you think is wrong.

Repeat through verses 1, 2 and 4:

e|------------------------
B|------------------------
G|------------------------
D|----4----4----4-2--2-2-1
A|-2----0-----------------
E|-----------4----3--3-3-3
   B    D    E    G       <--Chords for verse 3 and solo
   =              =
B(VII) D/A        E/G#  G(III)  (A)
With you     through ...
SOLO (by Slash) [TABs at bottom]
     
     B                 D                E         G     (A)
Lets wander slowly     through ...
  
Solo:(according to Andreas)
e|-------14--------14--------14--------14--------14--------14--------14------
B|17(19)----17(19)----17(19)----17(19)----17(19)----17(19)----17(19)----15h17

e|------17-----------|---------------|--------------|-----------------------
B|17(19)--(19)17--15-|-(18)17-15-----|17(19)--15-17-|15-17p15---------------
G|-------------------|-----------16~~|--------------|---------14-16-14h16p14

e|------------|------------------11(12)--|-13p12------------14h17---------14
B|------------|--------------10--------12|-------12--17(19)-------17(19)----
G|----14------|7--7(9)---9h11--11--------|----------------------------------
D|-16---16-14-|7------h9-----------------|----------------------------------

e|----------------|19------------------19----------19----------19---------
B|-18p17-15h17p15-|19--(19)18--17--15--19s18-17p15-19s18-17p15-19s18-17p15

e|-19----------16(17)-|-14-12-/12-12h14p12----12-------|------------------
B|-19s18-17p15--------|-------/12----------15----12-15-|---12-15-14-15p14-
G|--------------------|--------------------------------|14----14----------

e|-------------7---------------|--------------------|------7------7------
B|-------12-10--10p7-10p7--7---|-7h10--7h10--7h10p7-|7-10--7-10p7-7-10p7-
G|14(16)-11--------------9--9p7|9-----9-----7-------|--------------------

                             seven times
e|-7------7------7------7------7-----------|10-7h9h10-7h9h10-7h9h10-7h9h10
B|-7-10p7-7-10p7-7-10p7-7-10p7-7-10p7-10p7-|------------------------------

                                                          thirteen
e|-7h9h10-7h9h10-7h9h10-7h9h10-7h9h10-7h9h10-7h9h10-7h9h10-7h9h10-7h9-|7h9h10-

e|9-10p7---7------------7------------------------|------7-7-------7-7-
B|------10--10p7-10(12)-7-10-7-10p7--7-----------|------7-7-------7-7-
G|---------------------------------9--9p7-9p7-7--|9(11)-----9(11)-----
D|-------------------------------------------9-9-|--------------------

e|------7-7-------7-7-|------7-------7-------7-------7---------|----5------5-
B|------7-7-------7-7-|------7-------7-------7-------7---------|6h7-6--6-7-6-
G|9(11)-----9(11)-----|9(11)---9(11)---9(11)---9(11)---(11)9-9-|-------------

                                     eight
e|----5------5------5------5------5------5-5------------|--------------------7
B|6h7-6--6h7-6--6h7-6--6h7-6--6h7-6--6h7-6----7-5-7-5---|---------------7-10--
G|----------------------------------------------------4-|9(11)-7--9-7---------
D|------------------------------------------------------|-------------9-------

e|----7-10-12(14)--14(12)-10--12-13-10-12-|12-13p12-------13-12-13p12------
B|-10-------------------------------12----|--------15p12-------------15p12-

e|-13-12-13p12-------13-12-13p12------16(17)--14----12-12(13)--12(13)-|-14----
B|------------15p12-------------15p12---------12-15----11(12)---------|-12-15~

e|-12-14-----12h14-----12h14---12h14---12h14---12h14---12h14p12---12------12
B|-------15-------15-15------15------15------15------15---------15---12h15--
G|-------------------14-----------------------------------------------------

e|--------------
B|-12h15--------
G|-------14(16)-

-------------------------------------------------------------------------
Notations:
----5----  play fret five
----5~---  play fret five with vibrato
---7\5---  play fret seven, slide down to fret five
---8(9)--  play fret eight, bend the string (at fret eight) to reach
             the pitch of fret nine
---(9)8--  play fret eight already bent to the pitch of fret nine,
             unbending until it reaches the normal pitch of fret eight
----h7---  hammer-on to fret seven
----p5---  pull-off to fret five
---/12---  slide up to fret 12 (the starting fret of the slide is
             undefined, judge by ear)
 

Lenny-kravitz.com : Deutsch - Englisch - Französisch - Chinesisch

Designed by Muzilab™ Entertainement © 2012

page served in 0.006s