Lenny-kravitz.com     Muzilab.com
Home  |  Biographie  |  Discographie  |  Liede / Lyriken  |  Fotos  |  Tourdaten  |  Dokumentation  |  Videos  |  Links  |  Forum

Butterfly (Lenny Kravitz)
Infos  |  Lyriken  |  Guitarre

Guitarre

G         G         Daug      Daug      Dm        Dm  Dm     C    C
E |--3---------3---------x---------x---------x---------x---x------x----x---
A |--2---------2---------x---------x---------x---------x---x------3----3---
D |--0---------0---------x---------x---------0---------0---0------2----2---
G |--0---------0---------3---------3---------2---------2---2------0----0---
B |--0---------0---------3---------3---------3---------3---3------1----1---
E |--3---------3---------2---------2---------1---------1---1------0----0---	
                 You     are        the most ...



               C            G         G         Daug      Daug      Dm
E |------------x------------3---------3---------x---------x---------x-
A |------------3------------2---------2---------x---------x---------x-
D |------------2------------0---------0---------x---------x---------0-
G |------------0------------0---------0---------3---------3---------2-
B |-1SL3P1-0-1-1-1SL3P1-0-1-0---------0---------3---------3---------3-
E |------------0------------3---------3---------2---------2---------1-
                                        You     shine    ...

OR -- FOR THE CHORUS:

               C            Cm        Cm        Cm        Cm        G
E |------------x------------x---------x---------x---------x---------3-
A |------------3------------x---------x---------x---------x---------2-
D |------------2------------1---------1---------1---------1---------0-
G |------------0------------0---------0---------0---------0---------0-
B |-1SL3P1-0-1-1-1SL3P1-0-1-1---------1---------1---------1---------0-
E |------------0------------3---------3---------3....
 

Lenny-kravitz.com : Deutsch - Englisch - Französisch - Chinesisch

Designed by Muzilab™ Entertainement © 2012

page served in 0.009s