Lenny-kravitz.com     Muzilab.com
Home  |  Biographie  |  Discographie  |  Liede / Lyriken  |  Fotos  |  Tourdaten  |  Dokumentation  |  Videos  |  Links  |  Forum

Are you gonna go my way (Lenny Kravitz)
Infos  |  Lyriken  |  Guitarre

Guitarre

Riff 1: ---- 2x ----
| Guitar 1
|-------------------------------------------3----|
|-------------------------------------------3----|
|-2-^4-^2-p0-------------2-^4-^2-p0--------------|
|------------2---0-2----------------2---0-2------|
|------------------------------------------------|
|--------------0-------0--------------0----------|


    
Riff 2: ---- 6x ----
| Guitar 1
|-------------------------------------------3----|
|-------------------------------------------3----|
|-2-^4-^2-p0-------------2-^4-^2-p0--------------|
|------------2---0-2----------------2---0-2------|
|------------------------------------------------|
|--------------0-------0--------------0----------|
|                                                |
| Guitar 2                                       |
|------------------------------------------------|   
|-10^12^10p8-------------10^12^10p8--------------|   
|------------9---7-9----------------9---7-9------|   
|------------------------------------------------|   
|------------------------------------------------|   
|------------------------------------------------|

Riff 3: ---- 4x ----
|       |------------------------------------------------|
|       |------------------------------------------------|
|  G 1  |-2-^4-^2-p0-------------2-^4-^2-p0--------------|
|       |------------2---0-2----------------2---0-2------|
|       |------------------------------------------------|
|       |--------------0-------0--------------0-------0--|
|
|       I was born long ...
|---------------------------------------------------------

        
|      -- 3x --         ||
|-----------------------||-------------------|
|-----------------------||-------------------|
|-5-^7-^5-p3------------||--5---4---3--2--4--|
|------------5-0-3-5--0-||-------------------|
|-----------------------||-------------------|
|-----------------------||-------------------|
|                                            |
|      -- 3x --         ||                   |
|-----------------------||-------------------|
|-13^15^13p11-----------||-------------------|
|------------12--10-12--||--12--10--9--10-12-|
|-----------------------||-------------------|
|-----------------------||-------------------|
|-----------------------||-------------------|
|
| So that's why you've g...
|--------------------------------------------

|    Riff 3    2x
|
| Though I'm not paid ...
|---------------------------------------------------------
        
|    Chorus:
|----0-------------------0--------------------|
|----0-------------------0--------------------|
|----7-------------------6--------------------|
|----9-------------------7--------------------|
|---------------------------------------------|
|---------------------------------------------|
| But what I really ...


|------------------------------------------|
|-9-9-7-9---------------------9-9--12-9----|
|-9-9-7-9---------------------9-9--12-9----|
|-9-9-7-9---------------------9-9--12-9----|
|------------------------------------------|
|------------------------------------------|
| Are you gonna ...


|----0---------------0------------------------|
|----0---------------0------------------------|
|----7---------------6------------------------|
|----9---------------7------------------------|
|---------------------------------------------|
|---------------------------------------------|
| And I got to    ...
|
|---------------------------------------------------------

  Riff 1    1x

  Riff 2    3x
|---------------------------------------------------------

  Riff 3    4x    
| I don't know why we ...
|---------------------------------------------------------
        
       -- 3x ---------  ||
|-----------------------||-------------------|
|-----------------------||-------------------|
|-5-^7-^5-p3------------||--5---4---3--2--4--|
|------------5-0-3-5--0-||-------------------|
|-----------------------||-------------------|
|-----------------------||-------------------|
|                                            |
|      -- 3x --------   ||                   |
|-----------------------||-------------------|
|-13^15^13p11-----------||--13--12--11-10-12-|
|------------12--10-12--||-------------------|
|-----------------------||-------------------|
|-----------------------||-------------------|
|-----------------------||-------------------|

| So tell me why we...
|---------------------------------------------------------

   Riff 3    2x    

| We've got to love and...
|---------------------------------------------------------

| Chorus
|---------------------------------------------------------

     Solo:
              12x in total --             -- ending with:
        |---------------------------------||-----------------|
        |-9-----7-------7-------5-5-7-5---||-----------------|
        |-9-----7-------7-------6-6-7-6---||-----------------|
        |-9-----7-------7-------7-7-7-7---||-----0-1---------|
        |---------------------------------||---4-------------|
        |---------------------------------||-----------------|
        (repeat 4x by itself, then 8x under solo

|---------------------------------------------------------
        
      Outro:

        Riff 2    4x


        |-0----------0-------0-------------0-------|
        |-0----------0-------0-------------0-------|
        |-7----------6-------7-------------6-------|
        |-9----------7-------9-------------7-------|
        |------------------------------------------|
        |------------------------------------------|

|---------------------------------------------------------

        |------------------------------------------|
        |-9-9-7-9---------------------9-9--7--9----|
        |-9-9-7-9---------------------9-9--7--9----|
        |-9-9-7-9---------------------9-9--7--9----|
        |------------------------------------------|
        |------------------------------------------|
                  Are you gonna ...


        |-0---------------0------------------------|
        |-8---------------7------------------------|
        |-7---------------6------------------------|
        |-9---------------8------------------------|
        |------------------------------------------|
        |------------------------------------------|
            'cause Baby I ...


Transcribed by Gurupartap Davis (mystical@prism.nmt.edu)
Amended by Martin Ley (mley@acorn.co.uk)

Lenny Kravitz - 'Are you Gonna go my way (solo)'         
 
E-|--------------------------------------------------------------------|
B-|--------------------------------------------------------------------|
G-|----------12h14p12vvvbbb--------------------------------------------|
D-|-14vvvv------------------14p12-12--14-------------------------------|
A-|--------------------------------------12b14--12---------------------|
E-|------------------------------------------------15---12-10-12-12sss-|
                  
E-|-----------------------------------------------------------------------|
B-|------------------------------------------------------17----15s17vvvvv-|
G-|-----------------------9h11b13----9h11p9----9h11sss16----16------------|
D-|------9---11p9----9h11-------------------11----------------------------|
A-|--s11----------11------------------------------------------------------|
E-|-----------------------------------------------------------------------|
                                         
E-|-----------------------------15--17b19vvv--17b19vv-17b19vv-17b19vvv-|
B-|-17vvvvvvvvv19p17vvvv17vv17vvv--------------------------------------|
G-|--------------------------------------------------------------------|
D-|--------------------------------------------------------------------|
A-|--------------------------------------------------------------------|
E-|--------------------------------------------------------------------|
                                                                               
E-|-17b19rb17p15-----------------------------|
B-|--------------17vv-----17vv-----17b20vvv--|
G-|------------------------------------------|
D-|------------------------------------------|
A-|------------------------------------------|
E-|------------------------------------------|
                                                                               
E-|-----------------------------------------------------------------|
B-|--17b20v--17b20v--17b20v--17b20v--17b20v--17b20rb17p15----15--17-|
G-|-------------------------------------------------------16--------|
D-|-----------------------------------------------------------------|
A-|-----------------------------------------------------------------|
E-|-----------------------------------------------------------------|

E-|---------------------------------12----------12----------------|
B-|------------------------------------12-15b17----15p12----------|
G-|-16p14p12----12h14p12-----14b16-----------------------14p12----|
D-|----------14----------14------------------------------------14-|
A-|---------------------------------------------------------------|
E-|---------------------------------------------------------------|
                                                                               
E-|-12----------12--------------------------|
B-|----12-15b17----15p12--------------15p12-|
G-|----------------------14p12--14b16-------|
D-|-----------------------------------------|
A-|-----------------------------------------|
E-|-----------------------------------------|

E-|-------12-------12--------15p12----12------------------------------|
B-|-15b17----15b17----15b17--------15------15p12----15--12------------|
G-|----------------------------------------------14---------14p12--14-|
D-|-------------------------------------------------------------------|
A-|-------------------------------------------------------------------|
E-|-------------------------------------------------------------------|
                                                 
E-|-----------------------------|
B-|-----------------------------|
G-|-12b14rb12p9---12vvvvvvvvvv--|
D-|-----------------------------|
A-|-----------------------------|
E-|-----------------------------|
                                                                               

(Riff a) Full                                           Full          
-||--------------------------------------------------|----------------
-||--------------------------------------------------|----------------
-||*------2-----(2)p0--------------------------------|---2-----(2)----
-||*-------------------2-----------0-----2-----------|----------------
-||--------------------------------------------------|----------------
-||--------------------------0--------------------0--|----------------
                                                                      

                                  (w/ Riff a)    Full                 
----------------------------3--3---||---------------------------------
----------------------------3--3---||---------------------------------
p0---------------------------------||*------------14-----(14)p12------
----2-----------0-----2------------||*--------------------------------
-----------------------------------||---------------------------------
----------0------------------------||---------------------------------
                                                                      

                            P.M.       Full                           
---------------------------------|------------------------------------
---------------------------------|------------------------------------
---------------------------------|------14-----(14)p12----------------
---14------------12--14~~~---12--|-------------------------14---------
----------14---------------------|------------------------------------
---------------------------------|------------------------------------
                                                                      

                     P.M.      I was ...                           
---------------------------||-----------------------------------------
---------------------------||-----------------------------------------
--------------------------*||---2-----(2)p0---------------------------
-------12-----14~~~---12--*||-------------------2-----------0---------
14-------------------------||-----------------------------------------
---------------------------||-------------------------0---------------
                                                                      

            Full                                                      
---------|----------------------------------------3--3--|-------------
---------|----------------------------------------3--3--|-------------
---------|---2-----(2)p0--------------------------------|-------------
2--------|----------------2-----------0-----2-----------|-------------
---------|----------------------------------------------|-------------
------0--|----------------------0-----------------------|-------------
                                                                      

(riff b)  So that's...    Full                                        
---------------------------------------------------------------||-----
---------------------------------------------------------------||-----
---------------------------17-----(17)p15---------------------*||-----
-------------------------------------------17------15--17~~~--*||-----
-----------------------------------------------17--------------||-----
---------------------------------------------------------------||-----
                                                                      

                                           (w/ Riff b)                
----------------------------------------|-----------------------------
----------------------------------------|-----------------------------
----------------------------------------|-----------------------------
17--17--x--15--x--14--x--15--x--17--17--|-----------------------------
----------------------------------------|-----------------------------
----------------------------------------|-----------------------------
                                                                      

   Full                                                               
---------------------------------||-----------------------------------
---------------------------------||-----------------------------------
----5-----(5)p3-----------------*||--5--5--x--4--x--3--x--2--x--4-----
-----------------5-----3--5-----*||-----------------------------------
---------------------------------||-----------------------------------
--------------------3--------3---||-----------------------------------
                                                                      

   But  what I really......                                           
|---0--------0--0--------------------------|--0-----0--0--------------
|---3--------3--3-----------------------2--|--2-----2--2--------------
|---4--------4--4-----------------------2--|--2-----2--2--------------
|------------------------------------------|--------------------------
|------------------------------------------|--------------------------
|------------------------------------------|--------------------------
                                                                      

   Slide                                                              
---|----------------------|-----------------|--0-----0--0-------------
2--|--9-----9-----7--9----|--9-----9--12--9-|--3-----3--3-------------
2-/|--9-----9-----7--9---\|--9-----9--12--9\|--4-----4--4-------------
---|----------------------|-----------------|-------------------------
---|----------------------|-----------------|-------------------------
---|----------------------|-----------------|-------------------------
                                                                      

                     w/ Flanger                                       
---------------0--|---------------------------------|--------5--------
---------------2--|---9-----------7--------------7--|--------5--------
---------------2--|---9-----x-----7-----x-----x--7--|--x-----6--------
---------------2--|---9-----------7--------------7--|--------7--------
---------------0--|---------------------------------|-----------------
------------------|---------------------------------|-----------------
                                                                      

                                                                      
---5--||--------------------------------------------------------------
7--5--||--------------------------------------------------------------
7--6\*||--------------------------------------------------------------
7--7-*||--------------------------------------------------------------
------||--------------------------------------------------------------
------||--------------------------------------------------------------
 

Lenny-kravitz.com : Deutsch - Englisch - Französisch - Chinesisch

Designed by Muzilab™ Entertainement © 2012

page served in 0.018s