Lenny-kravitz.com     Muzilab.com
Home  |  Biographie  |  Discographie  |  Liede / Lyriken  |  Fotos  |  Tourdaten  |  Dokumentation  |  Videos  |  Links  |  Forum

Thin ice (Lenny Kravitz)
Infos  |  Lyriken  |  Guitarre

Guitarre

RIFF

E------------------------------------------------------------------------------------
B--------3-5-3-1---------------------------------------------------------------------
G----0-2---------2-----0-2-0---------------------------------------------------------
D--x-----------------x-----0---------------------------------------------------------
A------------------------------------------------------------------------------------
E------------------------------------------------------------------------------------

This is played 8 times in the INTRO, 4 times in the verse, 4 times in the CHORUS. And
it's in the Left channel by the way. 

BRIDGE

E------------------------------------------------------------------------------------
B--------------------------3-5-3-1---------------------------------------------------
G--2----2--2----2------0-2---------2-----0-2-0-----2----2------2----2-----7----7-----
D--2----2--2----3---------------------------0-----2----2------3----3-----7----7-----
A------------------------------------------------------------------------------------
E------------------------------------------------------------------------------------


E------------------------------------------------------------------------------------
B------------------------------------------------------------------------------------
G--5-----5---------------------------------------------------------------------------
D--5-----5---------------------------------------------------------------------------
A------------------------------------------------------------------------------------
E------------------------------------------------------------------------------------

SOLO

The riff does some strange thing, I'd check this out yourself if I were you, 'cause
I can't explain it. But the solo is panned in both channels

E-----10-----8-10-8---------10-10-10-10----------------------------------------------
B--8------10-------10-8-6-10-------------10-8-10~--10-8-10~--10--10--10--------------
G-----------------------------------------------------------------------9-----7-6----
D------------------------------------------------------------------------------------
A------------------------------------------------------------------------------------
E------------------------------------------------------------------------------------

E--------------------------------------------12-12-12-12-12-12-12-12---17--15-13-12--
B------------------15----------------------------------------------------------------
G--11-9--16-14--16----16-14-14-14-14--11-9-------------------------------------------
D------------------------------------------------------------------------------------
A------------------------------------------------------------------------------------
E------------------------------------------------------------------------------------

E--12/--12--10-----------------------------------------------------------------------
B---------------10-------------------------------------------------------------------
G------------------------------------------------------------------------------------
D------------------------------------------------------------------------------------
A------------------------------------------------------------------------------------
E------------------------------------------------------------------------------------

HARMONY OVERDUB

Repeat this twice

E----3-5-3-1-------------------------------------------------------------------------
B----1-3-----3-----1-3---------------------------------------------------------------
G--x-------------x-----0-------------------------------------------------------------
D------------------------------------------------------------------------------------
A------------------------------------------------------------------------------------
E------------------------------------------------------------------------------------

ENDING

Play 4 times

E----------------------
B--5-5-5-5-3-1---1-3---
G--------------2-------
D----------------------
A----------------------
E----------------------

Play 4 times 

E----------------------
B--7-7-7-7-7-5-3-1-3-5-
G----------------------
D----------------------
A----------------------
E----------------------

Play 4 times

E----------------------
B--8-8-8-8-8-7-5-3-5-7-
G----------------------
D----------------------
A----------------------
E----------------------

Play 4 times

E-------------------------
B--10-10-10-10-10-8-7-5---
G-------------------------
D-------------------------
A-------------------------
E-------------------------

E-----------------------------------------------
B--10-10-10-10-10-10-10-10-10-10-10-10-10-10----
G-----------------------------------------------
D-----------------------------------------------
A-----------------------------------------------
E-----------------------------------------------

E------------------------------------------------------------------
B------------------------------------------------------------------
G--2-----2-----------------------------------20-18-14--------------
D--2-----2---------------------------------------------------------
A------------------------------------------------------------------
E------------------------------------------------------------------
 

Lenny-kravitz.com : Deutsch - Englisch - Französisch - Chinesisch

Designed by Muzilab™ Entertainement © 2012

page served in 0.011s