Lenny-kravitz.com     Muzilab.com
Accueil  |  Biographie  |  Discographie  |  Chansons  |  Galerie  |  Concert  |  Documentation  |  Vidéos  |  Liens  |  Forum

The difference is why (Lenny Kravitz)
Infos  |  Paroles  |  Tablature

Tablature

INTRO (play twice):    

    A                  Am7               D/A               E7        
|------------------|-----------------|-----------------|--------------------|
|-------2----------|-------5---------|--------7--------|-------3------------|
|-----2---2--------|-----5---5-------|------7---7------|-----1---1----------|
|---2-------2------|---5-------5-----|----7-------7----|---2-------2--------|
|-0----------------|-0---------------|--0--------------|-2-----------2------|
|------------------|-----------------|-----------------|--------------------|
                                                                               
VERSE

    A                  A/G               Dsus2/F#          Dsus2/F    
|------------------|-----------------|-----------------|--------------------|
|-------2----------|-------2---------|-------3---------|-------3------------|
|-----2---2--------|-----2---2-------|-----2---2-------|-----2---2----------|
|---2-------2------|---2-------2-----|---2-------2-----|---2-------2--------|
|-0----------------|-----------------|-----------------|--------------------|
|------------------|-3---------------|-2---------------|-1------------------|
      I'm just ...I never ...
    
    
    A                  A/G               Dsus2/F#          Dsus2/F      
|------------------|-----------------|-----------------|--------------------|
|-------2----------|-------2---------|-------3---------|-------3------------|
|-----2---2--------|-----2---2-------|-----2---2-------|-----2---2----------|
|---2-------2------|---2-------2-----|---2-------2-----|---2-------2--------|
|-0----------------|-----------------|-----------------|--------------------|
|------------------|-3---------------|-2---------------|-1------------------|
      And each day I wonder     ...How ...
    
    A                  A/G               Dsus2/F#          Dsus2/F    
|------------------|-----------------|-----------------|--------------------|
|-------2----------|-------2---------|-------3---------|-------3------------|
|-----2---2--------|-----2---2-------|-----2---2-------|-----2---2----------|
|---2-------2------|---2-------2-----|---2-------2-----|---2-------2--------|
|-0----------------|-----------------|-----------------|--------------------|
|------------------|-3---------------|-2---------------|-1------------------|
 our lives once be ....new we're ...
    
    A                  A/G               Dsus2/F#          Dsus2/F      
|------------------|-----------------|-----------------|--------------------|
|-------2----------|-------2---------|-------3---------|-------3------------|
|-----2---2--------|-----2---2-------|-----2---2-------|-----2---2----------|
|---2-------2------|---2-------2-----|---2-------2-----|---2-------2--------|
|-0----------------|-----------------|-----------------|--------------------|
|------------------|-3---------------|-2---------------|-1------------------|
        I know we can make it  but ....
    
    
    B7                                   Bb7                           
|------------------|-----------------|-----------------|--------------------|
|-------4----------|-------4---------|-------3---------|-------3------------|
|-----2---2--------|-----2----2------|-----1---1-------|-----1---1----------|
|---4-------4------|---4--------4----|---3-------3-----|---3-------1--------|
|-2----------------|-2---------------|-1---------------|-1------------------|
|------------------|-----------------|-----------------|--------------------|
 Sometime the scales,they ....


    A                  Am7               D/A               E7             
|------------------|-----------------|-----------------|--------------------|
|-------2----------|-------5---------|--------7--------|-------3------------|
|-----2---2--------|-----5---5-------|------7---7------|-----1---1----------|
|---2-------2------|---5-------5-----|----7-------7----|---2-------2--------|
|-0----------------|-0---------------|--0--------------|-2-----------2------|
|------------------|-----------------|-----------------|--------------------|
                       The difference ...

    A                  Am7               D/A               E7    
|------------------|-----------------|-----------------|--------------------|
|-------2----------|-------5---------|--------7--------|-------3------------|
|-----2---2--------|-----5---5-------|------7---7------|-----1---1----------|
|---2-------2------|---5-------5-----|----7-------7----|---2-------2--------|
|-0----------------|-0---------------|--0--------------|-2-----------2------|
|------------------|-----------------|-----------------|--------------------|
                       The difference ...

And now repeat the verse (with different lyrics of course)
then end with :

D(V) - E(VII) - F(VIII) - G(X) - A(XII)
        Does this have to mean goodbye?

transcribed  by Rutger Tuller (Rutger.Tuller@cs.utwente.nl)
 

Lenny-kravitz.com : Français - Anglais - Allemand - Chinois

Designed by Muzilab™ Entertainement & Nécropédia © 2012

page served in 0.011s