Lenny-kravitz.com     Muzilab.com
Accueil  |  Biographie  |  Discographie  |  Chansons  |  Galerie  |  Concert  |  Documentation  |  Vidéos  |  Liens  |  Forum

Sugar (Lenny Kravitz)
Infos  |  Paroles  |  Tablature

Tablature

INTRO
    E                            D
e||-7----7--x-x(5)/7-7-7-7\\-x--|-5----5--x-x(3)/5-5-5-5-(x)-||
B||-9----9--x-x(5)/7-7-7-7\\-x--|-7----7--x-x(3)/5-5-5-5-(x)-||
G||*9----9---------------------|-7----7--------------------*||
D||*9----9---------------------|-7----7--------------------*||
A||-7----7---------------------|-5----5---------------------||
E||----------------------------|----------------------------||


  E                                            D
|-7--------7----x--x-(5)/7--7--7--7\\---x-----|-5--------5----x--x-(3)/5--5--5--5----x----|
|-9--------9----x--x-(5)/7--7--7--7\\---x-----|-7--------7----x--x-(3)/5--5--5--5----x----|
|-9--------9---------------------------------|-7--------7--------------------------------|
|-9--------9---------------------------------|-7--------7--------------------------------|
|-7--------7---------------------------------|-5--------5--------------------------------|
|--------------------------------------------|-------------------------------------------|
|                                            |                                           |
|---------------12-12-12\\10-10-10------------|---------------10-10-10\\9--9--9------------|
|---------------14-14-14\\12-12-12----14-\\12--|---------------12-12-12\\10-10-10----12-----|
|------------------------------------13-\\11--|------------------------------------11-----|
|--------------------------------------------|-------------------------------------------|
|--------------------------------------------|-------------------------------------------|
|--------------------------------------------|-------------------------------------------|


  E                                           D
|-7--------7----x--x-(5)/7--7--7--7\\---x----|-5--------5----x--x-(3)/5--5--5--5----x----|
|-9--------9----x--x-(5)/7--7--7--7\\---x----|-7--------7----x--x-(3)/5--5--5--5----x----|
|-9--------9--------------------------------|-7--------7--------------------------------|
|-9--------9--------------------------------|-7--------7--------------------------------|
|-7--------7--------------------------------|-5--------5--------------------------------|
|-------------------------------------------|-------------------------------------------|
|                                           |                                           |
|---------------12-12-12\\10-10-10-----------|---------------10-10-10\\9--9--9------------|
|-14------------14-14-14\\12-12-12----14-----|-12------------12-12-12\\10-10-10----12-----|
|-13---------------------------------13-----|-11---------------------------------11-----|
|-------------------------------------------|-------------------------------------------|
|-------------------------------------------|-------------------------------------------|
|-------------------------------------------|-------------------------------------------|


  VERSE
  E                         D
|-7----7--x-x-7--7--x-7---|-5----5--x-x-5--5--x-5---|
|-9----9--x-x-9--9--x-9---|-7----7--x-x-7--7--x-7---|
|-9----9--x-x-9--9--x-9---|-7----7--x-x-7--7--x-7---|
|-9----9--x-x-9--9--x-9---|-7----7--x-x-7--7--x-7---|
|-7----7--x-x-7--7--x-7---|-5----5--x-x-5--5--x-5---|
|-------------------------|-------------------------|
|
|------...
|-14---...
|-13---...
|------...
|------...
|------...

   E                         D                    3x
||-7----7--x-x-7--7--x-7---|-5----5--x-x-5--5--x-5---||
||-9----9--x-x-9--9--x-9---|-7----7--x-x-7--7--x-7---||
||*9----9--x-x-9--9--x-9---|-7----7--x-x-7--7--x-7--*||
||*9----9--x-x-9--9--x-9---|-7----7--x-x-7--7--x-7--*||
||-7----7--x-x-7--7--x-7---|-5----5--x-x-5--5--x-5---||
||-------------------------|-------------------------||

   C                         D
||-3----3--x-x-3--3--x-3---|-5----5--x-x-5--5--x-5---||
||-5----5--x-x-5--5--x-5---|-7----7--x-x-7--7--x-7---||
||*5----5--x-x-5--5--x-5---|-7----7--x-x-7--7--x-7--*||
||*5----5--x-x-5--5--x-5---|-7----7--x-x-7--7--x-7--*||
||-3----3--x-x-3--3--x-3---|-5----5--x-x-5--5--x-5---||
||-------------------------|-------------------------||


  BRIDGE
  B                         A                         G         F
|-2----2--x-x-2--2--x-4---|-0----0--x-x-0--0--x-0---|-3----3----1----1----|
|-4----4--x-x-4--4--x-4---|-2----2--x-x-2--2--x-2---|-3----3----1----1----|
|-4----4--x-x-4--4--x-4---|-2----2--x-x-2--2--x-2---|-4----4----2----2----|
|-4----4--x-x-4--4--x-4---|-2----2--x-x-2--2--x-2---|-5----5----3----3----|
|-2----2--x-x-2--2--x-2---|-0----0--x-x-0--0--x-0---|-5----5----3----3----|
|-------------------------|-------------------------|-3----3----1----1----|

  E    A
|-0----0------------|
|-0----2------------|
|-1----2------------|
|-2----2------------|
|-2----0------------|
|-0-----------------|


  CHORUS
  E                                           D
|-7--------7----x--x-(5)/7--7--7--7\\---x----|-5--------5----x--x-(3)/5--5--5--5----x----|
|-9--------9----x--x-(5)/7--7--7--7\\---x----|-7--------7----x--x-(3)/5--5--5--5----x----|
|-9--------9--------------------------------|-7--------7--------------------------------|
|-9--------9--------------------------------|-7--------7--------------------------------|
|-7--------7--------------------------------|-5--------5--------------------------------|
|-------------------------------------------|-------------------------------------------|
|                                           |                                           |
|---------------12-12-12\\10-10-10-----------|---------------10-10-10\\9--9--9------------|
|(14)*----------14-14-14\\12-12-12----14-----|-12------------12-12-12\\10-10-10----12-----|
|(13)--------------------------------13-----|-11---------------------------------11-----|
|-------------------------------------------|-------------------------------------------|
|-------------------------------------------|-------------------------------------------|
|-------------------------------------------|-------------------------------------------|
  * - Play only on repeat


  E                                           D
|-7--------7----x--x-(5)/7--7--7--7\\---x----|-5--------5----x--x-(3)/5--5--5--5----x----|
|-9--------9----x--x-(5)/7--7--7--7\\---x----|-7--------7----x--x-(3)/5--5--5--5----x----|
|-9--------9--------------------------------|-7--------7--------------------------------|
|-9--------9--------------------------------|-7--------7--------------------------------|
|-7--------7--------------------------------|-5--------5--------------------------------|
|-------------------------------------------|-------------------------------------------|
|                                           |                                           |
|---------------12-12-12\\10-10-10-----------|---------------10-10-10\\9--9--9------------|
|-14------------14-14-14\\12-12-12----14-----|-12------------12-12-12\\10-10-10----12-----|
|-13---------------------------------13-----|-11---------------------------------11-----|
|-------------------------------------------|-------------------------------------------|
|-------------------------------------------|-------------------------------------------|
|-------------------------------------------|-------------------------------------------|


  SOLO
                  /   3   \\          /   3   \\
    full    full.....                           full
|----------------------------|--------------------------------|
|-----)-------)------\\-------|--------------------)-----------|
|---12------12----12-(12)-9--|-10----10-p9------10-----10-12--|
|----------------------------|--------------12----------------|
|----------------------------|--------------------------------|
|----------------------------|--------------------------------|

                                               full
|------------------------------------|-----------------------|
|(9)/10--10-10--11--10---------------|-----------)-----------|
|-----------------------12----12p10--|-10------12--12--------|
|------------------------------------|-----------------------|
|------------------------------------|-----------------------|
|------------------------------------|-----------------------|

                                             (rake) full                 full        full
|----------10--10--------------|------------------------------|------------)------------|
|---13-13----------13--13--10--|-10h11-10--10--10-----)-------|-----------8-8----------)|
|------------------------------|----------------10--10--------|---------7------------10-|
|------------------------------|------------------------------|----x-10-----------------|
|------------------------------|------------------------------|-------------------------|
|------------------------------|------------------------------|-------------------------|


|-------------------|
|-------------------|
|-10----------------|
|-------------------|
|-------------------|
|-------------------|


   The song:
 -------------
    Intro
    Verse 1
    Bridge 1
    Chorus 1
    Verse 2
    Bridge 2
    Chorus 2
    Solo
   Chorus 3
 -------------

   Tabbed by Guitarnovice (guitarnovice@hotmail.com)
 

Lenny-kravitz.com : Français - Anglais - Allemand - Chinois

Designed by Muzilab™ Entertainement & Nécropédia © 2012

page served in 0.013s