Lenny-kravitz.com     Muzilab.com
Home  |  Biography  |  Discography  |  Songs  |  Gallery  |  Resource Center  |  Tour dates  |  Videos  |  Links  |  Forum

Circus (Lenny Kravitz)
Song infos  |  Lyrics  |  Guitar Tab

Guitar Tab

Hard (ish) chords:
C#maj7:  445454   Eb6  668888  Fm  133111  C6  032110


 Intro/Verse:
 ------------
  Riff1:
   Fm           G# (or Eb6)    C#maj7        C
e:--------------------------|----------------------------|
B:-------1------------------|----------------------------|
G:----1-----1---------5-----|--------5-------------5-----|
D:-----------------6-----6--|-----6-----6-------5-----5--|
A:--------------6-----------|--4-------------3-----------|
E:-1------------------------|----------------------------|
     "One day when I ...

Fm           G#         C#maj7    C
One day when I was ...
Fm            G#     C#maj7   C
For what I'll ...


   Riff 2:
    Eb6                        G#7?
e:--------------------------|--------------------------|
B:--------------------------|--------------------------|
G:--------5-----------5-----|--------5--3--------5--3--|
D:-----8-----8-----8-----8--|-----4-----------4--------|
A:--6-----------6-----------|--------------------------|
E:--------------------------|--4-----------4-----------|
   "...She walked into ...".



   C#maj7                     C
e:-------------------------|--------------------------|
B:-------------------------|--------------------------|
G:-------5-----------5-----|--------5-----------3-----|
D:----6-----6-----6-----6--|-----5-----5-----5-----5--|
A:-4-----------4-----------|--3-----------3-----------|
E:-------------------------|--------------------------|
  ..said she could ...

Eb6          G#7   
She walked into ...
C#maj7                    C
Said she could ...

(Riff 1)
This is the ...
She said to ...
(Riff 2)
Don't lose ...
So I had to ....


Chorus 1:
(Barre chords, lots of distortion)
---------
Fm		Eb     	G#
Welcome to the...
	      C#     Eb
watching ...
Fm		 Eb	G#
Never know ...
		C#
It might ...

(No chords)
So better ...

Play riff 1...once

Verse 2:
--------
(Riff 1)
What kind of ...
What kind of ...
(Riff 2)
When is the ...
What can I do to ...

Chorus 2: (same chords as chorus 1)
---------
Welcome to ...
Better be ...
Never know ....
It might end ...

So better ....


Play Riff 1...once.

Bridge:
-------
C#	 Eb		  Fm
Too many games ...
C#	    Eb	      Fm
They always ...
C#	Eb	Fm		C#
You and me just ...
		C
What can I do......

Solo: (played over Riff 1)
-----
    Fm		G# etc...
e:---------------------------------------------------------------------------|
B:---13b~~-------------------------------------------------------------------|
G:----------13-15------------------------------------------------------------|
D:----------------15~~~---13-15----------------------------------------------|
A:------------------------------15~~--15h16p15-15h16p15--13-11---------------|
E:-------------------------------------------------------------13-11-8~~~--/1|





e:----------------------13-~~~-15h16p15--13--18~--18p16h18-18p16-18p16----16-|
B:----------15h16-15h16------------------------------------------------18----|
G:--15b(17)------------------------------------------------------------------|
D:---------------------------------------------------------------------------|
A:---------------------------------------------------------------------------|
E:6--------------------------------------------------------------------------|


e:18-20--20-18-16b(18)-13~~---|
B:----------------------------|
G:----------------------------|
D:----------------------------|
A:----------------------------|
E:----------------------------|

(Riff 2)
She walked into ...

Play chorus 1 and 2
  (Riff 1)

...So better ...

Play riff 1 again

	Got to be ...

Riff 1- ultra slow
			   C6      Fm
		You better...

Frederic Maquet (f.maquet@ic.ac.uk)
Webpage: http://www.geocities.com/SunsetStrip/3224/
 

Lenny-kravitz.com : English - Français - Deutsch - 中文

Designed by Muzilab™ Entertainement and the Celebrity Post © 2014

page served in 0.01s