Lenny-kravitz.com     Muzilab.com
Home  |  Biography  |  Discography  |  Songs  |  Gallery  |  Resource Center  |  Tour dates  |  Videos  |  Links  |  Forum

Little girl's eyes (Lenny Kravitz)
Song infos  |  Lyrics  |  Guitar Tab  |  Chords

Chords

[intro]

   C#m {#1}
E|-----------------------------------------------------------
B|-(9---9---9---9---9---9---9---9)---------------------------
G|--9---9---9---9---9---9---9---9----------------------------
D|-11--11--11--11--11--11--11--11--11\\\\\\\\\\\\\\\\\\\\\\\-
A|-----------------------------------------------------------
E|-----------------------------------------------------------
                       (long slide down to end of fretboard)
   C#m {#2}
E|-----------------------------------------------------------
B|-----5------------------5-------------------5--------------
G|--/6---6-4-----------/6---6-4----4-------/6---6-4----------
D|------------6--4---------------6---4---------------6--4----
A|-----------------------------------------------------------
E|-----------------------------------------------------------

               C#m9              C#m/G#
E|----9----------11--------11----16~~~-----------------------
B|-------9-----------9-----------14~~~-----------------------
G|----------9-----------9--------13~~~-----------------------
D|-11----------11--------------------------------------------
A|-----------------------------------------------------------
E|-----------------------------------------------------------


[main chord]

    C#m {#3}
E|--9--
B|--9--
G|--9--
D|-----
A|-----
E|-----

C#m {#3}
All I ...

C#m {#2}
You make ...
                  C#m9        C#m/G#
When I look in my ...


[chorus]

C#m {#3}
When I look in my l...

[fill]

E|---9h12p9----
B|-------------
G|-------------
D|-------------
A|-------------
E|-------------

C#m {#3} (fill)
You're my ....

C#m {#2}
You are my biggest...
                  C#m9        C#m/G#
When I look in ...


[chorus]

C#m {#3}
When I look in my ...


[interlude]
[solo]



C#m {#2}
You make me feel...
                  C#m9        C#m/G#
When I look in my ...


[chorus]

C#m {#3}
When I look in my little ...


[outro/fade out]
(play with variations)

E|-||-------------------------------------------------------------||-
B|-||*-----------------------------------------------------------*||-
G|-||-----------------------------9-11-x-x-x-11-11--11--11-11--11-||-
D|-||--11-10-9-x-x-9-10-11-x-x-11---------------------------------||-
A|-||*-----------------------------------------------------------*||-
E|-||-------------------------------------------------------------||-
                                             .  .   .   .  .   .
                                             -  -   -   -  -   -



__________________________________
notation legend

 x  = strum totally muted strings
 .  = palm muted
 _  = play very short
 h  = hammer-on
 p  = pull-off
 b  = bend
 r  = bend release
 /  = slide up
 \  = slide up
<5> = natural harmonic
[5] = artifical harmonic
 ~  = vibrato
 tr = trill
__________________________________
tabbed by mihau
(mihau@gmx.net | http://members.xoom.com/mihau/tab/)
 

Lenny-kravitz.com : English - Français - Deutsch - 中文

Designed by Muzilab™ Entertainement and the Celebrity Post © 2014

page served in 0.037s