Lenny-kravitz.com     Muzilab.com
Home  |  Biography  |  Discography  |  Songs  |  Gallery  |  Resource Center  |  Tour dates  |  Videos  |  Links  |  Forum

Again (Lenny Kravitz)
Song infos  |  Lyrics  |  Guitar Tab

Guitar Tab

Intro
Gtr 1 & 2
|---------0---------|---------0---------|---------0--------2--|
|-----0-----0h2-0---|-----0-----0h2-0---|-----0-----0h2-0--3--|
|---2---2-----------|---2---2-----------|---2---2----------2--|
|-------------------|-------------------|------------------0--|
|-0-----------------|-------------------|---------------------|
|-----------------2-|(2)--------------0-|-0-------------------|
Gtr 3
|-------------------|-------------------|------------------2--|
|-2-2-2-2-2-0-2---2-|(2)--2-2-2-0-2---0-|(0)--0-0-0-2-0----3--|
|-2-2-2-2-2-2-2---2-|(2)--2-2-2-2-2---1-|(1)--1-1-1-1-1----2--|
|-2-2-2-2-2-2-2---4-|(4)--4-4-4-4-4---2-|(2)--2-2-2-2-2----0--|
|-0-0-0-0-0-0-0-0-4-|(4)--4-4-4-4-4---2-|(2)--2-2-2-2-2-------|
|-----------------2-|(2)--2-2-2-2-2---0-|(0)--0-0-0-0-0-------|

|(2)-/2-0-0h2p0------|
|(3)-------------0---|
|(2)---------------2-|
|(0)-----------------|
|--------------------|
|--------------------|

|(2)-----------------|
|(3)-----------------|
|(2)-----------------|
|(0)-----------------|
|--------------------|
|--------------------|

Gtr 3
|-2----2-2------|-0-----2-2-----|-2----2-2------|-0-----2-2-----|
|-3----3-3------|-0-----2-2-----|-3----3-3------|-0-----2-2-----|
|-2----2-2------|-1-----3-3-----|-2----2-2------|-1-----3-3-----|
|-0----0-0------|-2-----4-4-----|-0----0-0------|-2-----4-4-----|
|---------------|-2-----4-4-----|---------------|-2-----4-4-----|
|---------------|-0-----2-2-----|---------------|-0-----2-2-----|
|gtr 2
|-2----2-2------|-4-----6-6--66-|-2----2-2------|-4-----6-6--66-|
|-3----3-3------|-5-----7-7--77-|-3----3-3------|-5-----7-7--77-|
|-2----2-2------|-4-----6-6--66-|-2----2-2------|-4-----6-6--66-|
|---------------|---------------|---------------|---------------|
|---------------|---------------|---------------|---------------|
|---------------|---------------|---------------|---------------|
|gtr 1
|---------------|---------------|---------------|---------------|
|---------------|---------------|---------------|---------------|
|-2-------------|/4----/3----33-|-2-------------|/4----/3----33-|
|---------------|---------------|---------------|---------------|
|-0-------------|/2----/1----11-|-0-------------|/2----/1----11-|
|---------------|---------------|---------------|---------------|


Chorus:
(All of my life where have you been...)
|---------0---------|---------0---------|---------0---------|
|-----0-----0h2-0---|-----0-----0h2-0---|-----0-----0h2-0---|
|---2---2-----------|---2---2-----------|---2---2-----------|
|-------------------|-------------------|-----------------0-|
|-0-----------------|-------------------|-------------------|
|-----------------2-|(2)--------------0-|(0)----------------|

|---------0---------| Some times   |---------0---------|
|-----0-----0h2-0---| you can hear |-----0-----0h2-0---|
|---2---2---------2-| this ------> |---2---2---------2-|
|(0)----------------| instead      |(0)----------------|
|-------------------| <------ this |-------------------|
|-------------------|              |-------------------|

Play:
Verse once
Chorus twice

Interlude: (I think that here are no guitars, just voices, but this chords 
souds cool!)
Am - Am - Am - G - G - G

SOLO!!
  Asus2             Asus2/F#         Asus2/E
|-----------------|-----------------|-12b--12-10-9-10-12-|
|-12b--12b-r------|-(12)---------10-|--------------------|
|-----------------|-----------------|--------------------|
|-----------------|-----------------|--------------------|
|-----------------|-----------------|--------------------|
|-----------------|-----------------|--------------------|

  Asus2/D                         Asus2
|--------------------------9-10-|-12----------------------17b---|
|-12b--12(10)---10-9-10-12------|-----------17br----------------|
|--------trill------------------|-------------------------------|
|-------------------------------|-------------------------------|
|-------------------------------|-------------------------------|
|-------------------------------|-------------------------------|

  Asus2/F#      Asus2/E
|r(17)-----19b-|-19-17-19-17-----21-22-21-22--21--|
|--------------|----------------------------------|
|--------------|----------------------------------|
|--------------|----------------------------------|
|--------------|----------------------------------|
|--------------|----------------------------------|

Asus2/D                          return to chorus...
|-21-19h21p19-17-19-------------|-------------------------------|
|-------------------------------|-------------------------------|
|----------------------7---7--7-|-------------------------------|
|----------------------7h9-7--7-|-------------------------------|
|-I don't know yet if this is---|-------------------------------|
|-right but give you an idea ---|-------------------------------|

Play chorus like 3 or 4 times

and then strum chords like this...
|-0-0-0-0-0-0-0|
|-0-0-0-0-0-0-0|
|-2-2-2-2-2-2-2|
|-2-2-2-2-2-2-2|
|-0-0-0-0-x-x-x|
|---------2-2-2|

... and fade out.

tabbed by fco Barros (chanchofbp@hotmail.com)
 

Lenny-kravitz.com : English - Français - Deutsch - 中文

Designed by Muzilab™ Entertainement and the Celebrity Post © 2014

page served in 0.003s